» » »

Bad Religion - Social Suicide Bass

Artists:  A B C D E F G H I J K L M N O P Q R S T U V W X Y Z # 

Social Suicide Bass

(ver. 1) Click to play this song!
Bad Religion
 Rating:
4/5 (4 votes)


 Social Suicide lessons Tabs too difficult? Try these video lessons and learn fast
 
                



===================================

INSTRUMENT: 4-String Bass
TUNING: Standard (E,A,D,G)
TEMPO: 174 BPM

-----------------------------------


INTRO: (8 BARS AFTER GUITAR)

G||--2-2-2-2-2-2-2-2-0-0-0-------0-0--||
D||------------------------2-2-2------|| /_ 2X
A||-----------------------------------|| \
E||-----------------------------------||


VERSE 1:

G||-----------------------------------||
D||-----------------------------------|| /_ 4X
A||--0-0-0---0-0-0---3-3-3------------|| \
E||--------3-------3-------0-3-3-3-0--||


VERSE 2:

G||-----------------------------------||
D||-----------------------------------||
A||--3-3-3-3-3-3-3-----------3-3-3-3--||
E||----------------0-1-1-1-1----------||

G||-----------------------------------||
D||-----------------------------------||
A||-----------------------------------||
E||--3-3-3-3-3-3-3-0-1-1-1-1-0-0-0-0--||  

G||-----------------------------------||
D||-----------------------------------||
A||--0-0-0-0-0-0-0-----------3-3-3-0--||
E||----------------0-1-1-1-1----------||

ENDING 1:

G||-----------------------------------||
D||-----------------------------------||
A||--2-2-2-3-2-0----------------------||
E||--------------3-0-1-1----3---3-----||

ENDING 2:

G||-----------------------------------||
D||-----------------------------------||
A||--2-2-2-0-2-3-2-0------------------||
E||------------------1-1----3---3-----||


CHORUS:

G||-----------------------------------||
D||-----------------------------------||
A||--0-0-0---0-0-0---3-3-3------------||
E||--------3-------3-------0-3-3-3-0--||

G||------------------2-0--------------||
D||----------------------2-0-----0----||
A||--0-0-0---0-0-0-----------3-3---3--||
E||--------3-------3------------------||


BRIDGE 2:

G||-----------------------------------||
D||----------------3------------------|| /_ 2X
A||--0-0-0-0-0-0-------3-3-3-------3--|| \
E||--------------------------0-3------||


VERSE 3:

G||-2-2-2-2-2-2-2-2-0-0-0-------0-0---||
D||-----------------------2-2-2-------||
A||-----------------------------------||
E||-----------------------------------||


G||-2-2-2-0-2-2-0-0-4-4-4-4-4-4-0-0---||
D||-----------------------------------||
A||-----------------------------------||
E||-----------------------------------||


G||-2-2-2-2-2-2-2-2-8-8-6-6-5-5-0-0---||
D||-----------------------------------||
A||-----------------------------------||
E||-----------------------------------||


G||-2-2-2-2-0-0-0---------------------||
D||---------------2-2-2-2-2-----------||
A||--------------------------3-3-2-2--||
E||-----------------------------------||


OUTRO:

G||-----------------------------------||
D||-----------------------------------||
A||--0-0-0---0-0-0---3-3-3------------||
E||--------3-------3-------0-3-3-3-0--||

G||-----------------------------------||
D||-----------------------------------||
A||-----------------------------------||
E||--5/0------------------------------||


-----------------------------------


This is the order of how the parts are
played:

INTRO
VERSE 1
VERSE 2 (ENDING 1)
CHORUS
VERSE 2 (ENDING 2)
CHORUS
BRIDGE 2
VERSE 3
VERSE 2 (ENDING 2)
OUTRO

I tabbed this one out by ear... it wasn't
hard, but I had a bit of trouble tabbing
out verse 3. Anyway, enjoy the tab! If
you have any questions, contact me at

Have fun! =)
            
Submit corrections



        Social Suicide lessons Hard to play? Try these video lessons and learn fast Social Suicide lessons
        
↑ Back to top | Tablatures and chords for acoustic guitar and electric guitar, ukulele, drums are parodies/interpretations of the original songs. You may use it for private study, scholarship, research or language learning purposes only