Home » B » Bad Religion »

Bad Religion - 21St Century Digital Boy Bass

Artists:  A B C D E F G H I J K L M N O P Q R S T U V W X Y Z # 

21St Century Digital Boy Bass

(ver. 1) Click to play this song!
Bad Religion
 Rating:
4.3/5 (6 votes)
                [Intro]
 
     1    +    2    +    3    +    4    +      1    +    2    +    3    +    4    +
G |-----------------------------------------|-----------------------------------------|
D |--0----0----0----0----0----0----0----0---|--0----0----0----0----0----0----0----0---|
A |-----------------------------------------|-----------------------------------------|
E |-----------------------------------------|-----------------------------------------|
 
 
[Verse 1]
 
     1    +    2    +    3    +    4    +      1    +    2    +    3    +    4    +
G |-----------------------------------------|-----------------------------------------|
D |--0----0---------------------------------|-----------------------------------------|
A |-----------------------------------------|----------------------1----1----0----0---|
E |----------------------1----1-------------|--3----3---------------------------------|
 
 
     1    +    2    +    3    +    4    +      1    +    2    +    3    +    4    +
G |-----------------------------------------|-----------------------------------------|
D |--0----0---------------------------------|-----------------------------------------|
A |-----------------------------------------|----------------------1----1----0----0---|
E |----------------------1----1-------------|--3----3---------------------------------|
 
 
     1    +    2    +    3    +    4    +      1    +    2    +    3    +    4    +
G |-----------------------------------------|-----------------------------------------|
D |--0----0----0----0-----------------------|-----------------------------------------|
A |-----------------------------------------|--3----3----3----0---------0----2----3---|
E |----------------------1----1----1----1---|----------------------3------------------|
 
 
     1    +    2    +    3    +    4    +      1    +    2    +    3    +    4    +
G |-----------------------------------------|-----------------------------------------|
D |--0----0---------------------------------|-----------------------------------------|
A |-----------------------------------------|--0--------------------------------------|
E |----------------------1----1----1----3---|-----------------------------------------|
 
 
[Verse 2]
 
     1    +    2    +    3    +    4    +      1    +    2    +    3    +    4    +
G |-----------------------------------------|-----------------------------------------|
D |--0----0---------------------------------|-----------------------------------------|
A |-----------------------------------------|----------------------1----1----0----0---|
E |----------------------1----1-------------|--3----3---------------------------------|
 
 
     1    +    2    +    3    +    4    +      1    +    2    +    3    +    4    +
G |-----------------------------------------|-----------------------------------------|
D |--0----0---------------------------------|-----------------------------------------|
A |-----------------------------------------|----------------------1----1----0----0---|
E |----------------------1----1-------------|--3----3---------------------------------|
 
 
     1    +    2    +    3    +    4    +      1    +    2    +    3    +    4    +
G |-----------------------------------------|-----------------------------------------|
D |--0----0----0----0-----------------------|-----------------------------------------|
A |-----------------------------------------|--3----3----3----0---------0----2----3---|
E |----------------------1----1----1----1---|----------------------3------------------|
 
 
     1    +    2    +    3    +    4    +      1    +    2    +    3    +    4    +
G |-----------------------------------------|-----------------------------------------|
D |--0----0---------------------------------|-----------------------------------------|
A |-----------------------------------------|--0----0----0----0----0----0----0----0---|
E |----------------------1----1----1----3---|-----------------------------------------|
 
 
     1    +    2    +    3    +    4    +
G |-----------------------------------------|
D |-----------------------------------------|
A |--0----0----0----0----0----0----0----0---|
E |-----------------------------------------|
 
 
[Chorus 1]
 
     1    +    2    +    3    +    4    +      1    +    2    +    3    +    4    +
G |-----------------------------------------|-----------------------------------------|
D |--0----0----0----------------------------|-----------------------------------------|
A |-----------------0----1----1----1----0---|----------------------3----3----3----3---|
E |-----------------------------------------|--1----1----1----1-----------------------|
 
 
     1    +    2    +    3    +    4    +      1    +    2    +    3    +    4    +
G |-----------------------------------------|-----------------------------------------|
D |--0----0----0----------------------------|-----------------------------------------|
A |-----------------0----1----1----1----0---|-------0----1----2----3----3----3----3---|
E |-----------------------------------------|--1--------------------------------------|
 
 
     1    +    2    +    3    +    4    +      1    +    2    +    3    +    4    +
G |-----------------------------------------|-----------------------------------------|
D |--0----0----0----------------------------|-----------------------------------------|
A |-----------------0----1----1----1----0---|-----------------------------------------|
E |-----------------------------------------|--1----1----1----1----3----3----3----3---|
 
 
     1    +    2    +    3    +    4    +      1    +    2    +    3    +    4    +
G |-----------------------------------------|-----------------------------------------|
D |--0----0----0----------------------------|-----------------------------------------|
A |-----------------0----1----1----1----0---|-----------------------------------------|
E |-----------------------------------------|--1----1----1----1----3----3----3----3---|
 
 
     1    +    2    +    3    +    4    +      1    +    2    +    3    +    4    +
G |-----------------------------------------|-----------------------------------------|
D |-----------------------------------------|-----------------------------------------|
A |--0----0----0----0----0----0----0----0---|--0----0----0----0----0----0----0----0---|
E |-----------------------------------------|-----------------------------------------|
 
 
[Pre-Verse 3]
 
     1    +    2    +    3    +    4    +      1    +    2    +    3    +    4    +
G |-----------------------------------------|-----------------------------------------|
D |--0----0---------------------------------|-----------------------------------------|
A |-----------------------------------------|----------------------1----1----0----0---|
E |----------------------1----1-------------|--3----3---------------------------------|
 
 
     1    +    2    +    3    +    4    +      1    +    2    +    3    +    4    +
G |-----------------------------------------|-----------------------------------------|
D |--0----0---------------------------------|-----------------------------------------|
A |-----------------------------------------|--0--------------------------------------|
E |----------------------1----1----1----3---|-----------------------------------------|
 
 
[Verse 3]
 
 
     1    +    2    +    3    +    4    +      1    +    2    +    3    +    4    +
G |-----------------------------------------|-----------------------------------------|
D |--0----0---------------------------------|-----------------------------------------|
A |-----------------------------------------|----------------------1----1----0----0---|
E |----------------------1----1-------------|--3----3---------------------------------|
 
 
     1    +    2    +    3    +    4    +      1    +    2    +    3    +    4    +
G |-----------------------------------------|-----------------------------------------|
D |--0----0---------------------------------|-----------------------------------------|
A |-----------------------------------------|----------------------1----1----0----0---|
E |----------------------1----1-------------|--3----3---------------------------------|
 
 
     1    +    2    +    3    +    4    +      1    +    2    +    3    +    4    +
G |-----------------------------------------|-----------------------------------------|
D |--0----0----0----0-----------------------|-----------------------------------------|
A |-----------------------------------------|--3----3----3----0---------0----2----3---|
E |----------------------1----1----1----1---|----------------------3------------------|
 
 
     1    +    2    +    3    +    4    +      1    +    2    +    3    +    4    +
G |-----------------------------------------|-----------------------------------------|
D |--0----0---------------------------------|-----------------------------------------|
A |-----------------------------------------|--0----0----0----0----0----0----0----0---|
E |----------------------1----1----1----3---|-----------------------------------------|
 
 
[Chorus 2]
 
     1    +    2    +    3    +    4    +      1    +    2    +    3    +    4    +
G |-----------------------------------------|-----------------------------------------|
D |--0---------0----0-----------------------|-----------------------------------------|
A |----------------------1----1----1----0---|----------------------3----3----3----3---|
E |-----------------------------------------|--1----1----1----1-----------------------|
 
 
     1    +    2    +    3    +    4    +      1    +    2    +    3    +    4    +
G |-----------------------------------------|-----------------------------------------|
D |--0----0----0----------------------------|-----------------------------------------|
A |-----------------0----1----1----1----0---|-------0----1----2----3----3----3----3---|
E |-----------------------------------------|--1--------------------------------------|
 
 
     1    +    2    +    3    +    4    +      1    +    2    +    3    +    4    +
G |-----------------------------------------|-----------------------------------------|
D |--0----0----0----------------------------|-----------------------------------------|
A |-----------------0----1----1----1----0---|-----------------------------------------|
E |-----------------------------------------|--1----1----1----1----3----3----3----3---|
 
 
     1    +    2    +    3    +    4    +      1    +    2    +    3    +    4    +
G |-----------------------------------------|-----------------------------------------|
D |--0----0----0----------------------------|-----------------------------------------|
A |-----------------0----1----1----1----0---|-----------------------------------------|
E |-----------------------------------------|--1----1----1----1----3----3----3----3---|
 
 
     1    +    2    +    3    +    4    +      1    +    2    +    3    +    4    +
G |-----------------------------------------|-----------------------------------------|
D |-----------------------------------------|-----------------------------------------|
A |--0----0----0----0----0----0----0----0---|--0----0----0----0----0----0----0----0---|
E |-----------------------------------------|-----------------------------------------|
 
 
[Bridge]
 
     1    +    2    +    3    +    4    +      1    +    2    +    3    +    4    +
G |-----------------------------------------|-----------------------------------------|
D |-----------------------------------------|-----------------------------------------|
A |--3---------3----3----3----3----3----3---|--3----3----3----3----3----3----3----0---|
E |-----------------------------------------|-----------------------------------------|
 
 
     1    +    2    +    3    +    4    +      1    +    2    +    3    +    4    +
G |-----------------------------------------|-----------------------------------------|
D |-----------------------------------------|-----------------------------------------|
A |-----------------------------------------|-------------------------------------0---|
E |--3----3----3----3----3----3----3----3---|--3----3----3----3----3----3----3--------|
 
 
     1    +    2    +    3    +    4    +      1    +    2    +    3    +    4    +
G |-----------------------------------------|-----------------------------------------|
D |-----------------------------------------|-----------------------------------------|
A |--1----1----1----1----1----1----1----0---|-----------------------------------------|
E |-----------------------------------------|--1----1----1----1----1----1----1----1---|
 
 
     1    +    2    +    3    +    4    +      1    +    2    +    3    +    4    +
G |-----------------------------------------|-----------------------------------------|
D |-----------------------------------------|-----------------------------------------|
A |--0----0----0----0----0----0----0----0---|--0----0----0----0----0----0----0----0---|
E |-----------------------------------------|-----------------------------------------|
 
 
[Solo]
 
     1    +    2    +    3    +    4    +      1    +    2    +    3    +    4    +
G |-----------------------------------------|-----------------------------------------|
D |--0----0----0----------------------------|-----------------------------------------|
A |-----------------0----1----1----1----0---|----------------------3----3----3----3---|
E |-----------------------------------------|--1----1----1----1-----------------------|
 
 
     1    +    2    +    3    +    4    +      1    +    2    +    3    +    4    +
G |-----------------------------------------|-----------------------------------------|
D |--0----0----0----------------------------|-----------------------------------------|
A |-----------------0----1----1----1----0---|----------------------3----3----3----3---|
E |-----------------------------------------|--1----1----1----1-----------------------|
 
 
     1    +    2    +    3    +    4    +      1    +    2    +    3    +    4    +
G |-----------------------------------------|-----------------------------------------|
D |--0----0----0----------------------------|-----------------------------------------|
A |-----------------0----1----1----1----0---|-----------------------------------------|
E |-----------------------------------------|--1----1----1----1----3----3----3----3---|
 
 
     1    +    2    +    3    +    4    +      1    +    2    +    3    +    4    +
G |-----------------------------------------|-----------------------------------------|
D |--0----0----0----------------------------|-----------------------------------------|
A |-----------------0----1----1----1----0---|-----------------------------------------|
E |-----------------------------------------|--1----1----1----1----3----3----3----3---|
 
 
     1    +    2    +    3    +    4    +      1    +    2    +    3    +    4    +
G |-----------------------------------------|-----------------------------------------|
D |-----------------------------------------|-----------------------------------------|
A |--0----0----0----0----0----0----0----0---|--0----0----0----0----0----0----0----0---|
E |-----------------------------------------|-----------------------------------------|
 
 
[Chorus 3]
 
     1    +    2    +    3    +    4    +      1    +    2    +    3    +    4    +
G |-----------------------------------------|-----------------------------------------|
D |--0----0----0----------------------------|-----------------------------------------|
A |-----------------0----1----1----1----0---|----------------------3----3----3----3---|
E |-----------------------------------------|--1----1----1----1-----------------------|
 
 
     1    +    2    +    3    +    4    +      1    +    2    +    3    +    4    +
G |-----------------------------------------|-----------------------------------------|
D |--0----0----0----------------------------|-----------------------------------------|
A |-----------------0----1----1----1----0---|-------0----1----2----3----3----3----3---|
E |-----------------------------------------|--1--------------------------------------|
 
 
     1    +    2    +    3    +    4    +      1    +    2    +    3    +    4    +
G |-----------------------------------------|-----------------------------------------|
D |--0----0----0----------------------------|-----------------------------------------|
A |-----------------0----1----1----1----0---|-----------------------------------------|
E |-----------------------------------------|--1----1----1----1----3----3----3----3---|
 
 
     1    +    2    +    3    +    4    +      1    +    2    +    3    +    4    +
G |-----------------------------------------|-----------------------------------------|
D |--0----0----0----------------------------|-----------------------------------------|
A |-----------------0----1----1----1----0---|-----------------------------------------|
E |-----------------------------------------|--1----1----1----1----3----3----3----3---|
 
 
[Outro]
 
     1    +    2    +    3    +    4    +      1    +    2    +    3    +    4    +
G |-----------------------------------------|-----------------------------------------|
D |--0----0----0----------------------------|-----------------------------------------|
A |-----------------0----1----1----1----0---|----------------------3----3----3----3---|
E |-----------------------------------------|--1----1----1----1-----------------------|
 
 
     1    +    2    +    3    +    4    +      1    +    2    +    3    +    4    +
G |-----------------------------------------|-----------------------------------------|
D |--0----0----0----------------------------|-----------------------------------------|
A |-----------------0----1----1----1----0---|-------0----1----2----3----3----3----3---|
E |-----------------------------------------|--1--------------------------------------|
 
 
     1    +    2    +    3    +    4    +      1    +    2    +    3    +    4    +
G |-----------------------------------------|-----------------------------------------|
D |--0----0----0----------------------------|-----------------------------------------|
A |-----------------0----1----1----1----0---|----------------------3----3----3----3---|
E |-----------------------------------------|--1----1----1----1-----------------------|
 
 
     1    +    2    +    3    +    4    +      1    +    2    +    3    +    4    +
G |-----------------------------------------|-----------------------------------------|
D |--0----0----0----------------------------|-----------------------------------------|
A |-----------------0----1----1----1----0---|-------0----1----2----3----3----3----3---|
E |-----------------------------------------|--1--------------------------------------|
 
Start to fade out from here...
 
     1    +    2    +    3    +    4    +      1    +    2    +    3    +    4    +
G |-----------------------------------------|-----------------------------------------|
D |--0----0----0----------------------------|-----------------------------------------|
A |-----------------0----1----1----1----0---|-------0----1----2----3----3----3----3---|
E |-----------------------------------------|--1--------------------------------------|
 
 
     1    +    2    +    3    +    4    +      1    +    2    +    3    +    4    +
G |-----------------------------------------|-----------------------------------------|
D |--0----0----0----------------------------|-----------------------------------------|
A |-----------------0----1----1----1----0---|-------0----1----2----3----3----3----3---|
E |-----------------------------------------|--1--------------------------------------|
 
 
     1    +    2    +    3    +    4    +      1    +    2    +    3    +    4    +
G |-----------------------------------------|-----------------------------------------|
D |--0----0----0----------------------------|-----------------------------------------|
A |-----------------0----1----1----1----0---|-------0----1----2----3----3----3----3---|
E |-----------------------------------------|--1--------------------------------------|
 
 
     1    +    2    +    3    +    4    +      1    +    2    +    3    +    4    +
G |-----------------------------------------|-----------------------------------------|
D |--0----0----0----------------------------|-----------------------------------------|
A |-----------------0----1----1----1----0---|-------0----1----2----3----3----3----3---|
E |-----------------------------------------|--1--------------------------------------|
            
Submit corrections

↑ Back to top | Tablatures and chords for acoustic guitar and electric guitar, ukulele, drums are parodies/interpretations of the original songs. You may use it for private study, scholarship, research or language learning purposes only