» » »

Backyard Babies - Say When Tabs

Artists:  A B C D E F G H I J K L M N O P Q R S T U V W X Y Z # 

Say When Tabs

(ver. 1) Click to play this song!
Backyard Babies
 Rating:
4/5 (4 votes)

 Say When lessons Tabs too difficult? Try these video lessons and learn fast
 
                Verse:
She put's her voicemail in my head
e|--------------------------------------------------
B|--------------------------------------------------
G|--9----9-9-9-9-9-9-9-----------------4-6-6-4-6-6--
D|--9----9-9-9-9-9-9-9-7-7-7-7-7-7-7----------------
A|--7----7-7-7-7-7-7-7-7-7-7-7-7-7-7----------------
E|---------------------5-5-5-5-5-5-5----------------

With every girl I see a bed
e|---------------------------------------------
B|---------------------------------------------
G|--9-9-9-9-9-9-9-----------------4-6-6-4-6-6--
D|--9-9-9-9-9-9-9-7-7-7-7-7-7-7----------------
A|--7-7-7-7-7-7-7-7-7-7-7-7-7-7----------------
E|----------------5-5-5-5-5-5-5----------------

C'mon be retarded!
e|-------------------------------
B|-------------------------------
G|------------------4-6-6-4-6-6--
D|--7-7-7-7-7-7-7----------------
A|--7-7-7-7-7-7-7----------------
E|--5-5-5-5-5-5-5----------------

Don't wanna be bothered!
e|-------------------------------
B|-------------------------------
G|------------------4-6-6-4-6-6--
D|--7-7-7-7-7-7-7----------------
A|--7-7-7-7-7-7-7----------------
E|--5-5-5-5-5-5-5----------------

When she spills out her problems for me
e|-------------------------------------|
B|-------------------------------------|
G|-------------------------------------|
D|--7-7-7-7-7-7-7-9-9-9-9-9-9-9-9-9-9--|
A|--7-7-7-7-7-7-7-9-9-9-9-9-9-9-9-9-9--|
E|--5-5-5-5-5-5-5-7-7-7-7-7-7-7-7-7-7--|

Chorus:
e|------------------------------------------------------
B|------------------------------------------------------
G|--9-8-6--6-6-6-6-6-6-------------9-9-9-9-9-9-9-9-9-9--
D|--9-8-6--6-6-6-6-6-6-7-7-7-7-7-7-9-9-9-9-9-9-9-9-9-9--
A|--7-6-4--4-4-4-4-4-4-7-7-7-7-7-7-7-7-7-7-7-7-7-7-7-7--
E|---------------------5-5-5-5-5-5----------------------

e|--------------------------------------------------------------|
B|--------------------------------------------------------------|
G|--9-8-6--6-6-6-6-6-6-------------9-9-9-9-9-9-9-9-9-9-x-x-x-x--|
D|--9-8-6--6-6-6-6-6-6-7-7-7-7-7-7-9-9-9-9-9-9-9-9-9-9-x-x-x-x--|
A|--7-6-4--4-4-4-4-4-4-7-7-7-7-7-7-7-7-7-7-7-7-7-7-7-7-x-x-x-x--|
E|---------------------5-5-5-5-5-5------------------------------|

First solo:
e|-----------------------------------------------------------------
B|--5p4---5p4---5p4---5p4---5p4-----5p4---7p4---5p4---7p4---5p4----
G|------4-----4-----4-----4-----4-------4-----4-----4-----4-----4--
D|-----------------------------------------------------------------
A|-----------------------------------------------------------------
E|-----------------------------------------------------------------

e|------------------------------------------------|
B|-----------------11--11--11--11---19-19^-19-16--|
G|--4-----4---4----13^-13^-13^-13^----------------|
D|----4-2---1-------------------------------------|
A|--------------4---------------------------------|
E|------------------------------------------------|

Second solo:
e|---------------------------------------------------------|
B|--17p16------17p16------------------5p4-----5p4----------|
G|--------16~--------16-18-16-16v---------4~------4-6-4-4--|
D|---------------------------------------------------------|
A|---------------------------------------------------------|
E|---------------------------------------------------------|

Enjoy!
            
Submit corrections


        Say When lessons Hard to play? Try these video lessons and learn fast Say When lessons
        
↑ Back to top | Tablatures and chords for acoustic guitar and electric guitar, ukulele, drums are parodies/interpretations of the original songs. You may use it for private study, scholarship, research or language learning purposes only