Home » B » Backyard Babies »

Backyard Babies - Heaven 29 Bass

Artists:  A B C D E F G H I J K L M N O P Q R S T U V W X Y Z # 

Heaven 29 Bass

(ver. 1) Click to play this song!
Backyard Babies
 Rating:
4.3/5 (27 votes)
                [Intro] 0:09
Gb|-----------------------------------|
Db|-----------------------------------|
Ab|--5-5---5-5---5-5---5-5-5-5-5-5\---|
Eb|-----------------------------------|
 
Gb|----------------------------------------------------------------------|
Db|----------------------------------------------------------------------|
Ab|--------------------------/10-10-9-9-5-5-5-5-5-5-5-5-3-3-3-3-3-3-3-3--|
Eb|--3-3-3-3-3-3-3-3-3-3-3-3---------------------------------------------|
 
Gb|----------------------------------------------------------------------|
Db|----------------------------------------------------------------------|
Ab|--------------------------/10-10-9-9-5-5-5-5-5-5-5-5-3-3-3-3-3-2-0----|
Eb|--3-3-3-3-3-3-3-3-3-3-3-3---------------------------------------------|
 
Gb|--------------------------------------------------------------------|
Db|--------------------------------------------------------------------|
Ab|--------2-3---2---------2-3---2---------2-3---2---------------------|
Eb|--3---------------3---------------3---------------3-----------------|
 
[Verse]
Gb|--------------------------------------------------------------------|
Db|--------------------------------------------------------------------|
Ab|--5-5-5-5-5-5-5-5-5-5-5-5-5-5-5-5-----------------------------------|
Eb|----------------------------------3-3-3-3-3-3-3-3-3-3-3-3-3-3-3-3---|
 
Gb|--------------------------------------------------------------------|
Db|--------------------------------------------------------------------|
Ab|--5-5-5-5-5-5-5-5-5-5-5-5-5-5-5-5-------------------------0-0-2-2---|
Eb|----------------------------------3-3-3-3-3-3-3-3-3-3-3-3-----------|
 
[Chorus]
Gb|------------------------------------------------------------------------|
Db|------------------------------------------------------------------------|
Ab|--3-3-3-3-3-3-3-3-5-5-5-5-5-5-5-5-10-10-10-10-9-9-9-9-7-7-7-7-5-5-5-5---|
Eb|------------------------------------------------------------------------|
 
Gb|--------------------------------------------------------------------|
Db|--------------------------------------------------------------------|
Ab|--3-3-3-3-3-3-3-3-5-5-5-5-5-5-5-5-------2-3---2---------------------|
Eb|----------------------------------3---------------3-----------------|
 
[Verse]
Gb|--------------------------------------------------------------------|
Db|--------------------------------------------------------------------|
Ab|--5-5-5-5-5-5-5-5-5-5-5-5-5-5-5-5-----------------------------------|
Eb|----------------------------------3-3-3-3-3-3-3-3-3-3-3-3-3-3-3-3---|
 
Gb|--------------------------------------------------------------------|
Db|--------------------------------------------------------------------|
Ab|--5-5-5-5-5-5-5-5-5-5-5-5-5-5-5-5-------------------------0-0-2-2---|
Eb|----------------------------------3-3-3-3-3-3-3-3-3-3-3-3-----------|
 
[Chorus]
Gb|------------------------------------------------------------------------|
Db|------------------------------------------------------------------------|
Ab|--3-3-3-3-3-3-3-3-5-5-5-5-5-5-5-5-10-10-10-10-9-9-9-9-7-7-7-7-5-5-5-5---|
Eb|------------------------------------------------------------------------|
 
Gb|------------------------------------|
Db|------------------------------------|
Ab|--3-3-3-3-3-3-3-3-5-5-5-5-5-5-5-5---|
Eb|------------------------------------|
 
Gb|-----------------------------------------------------------------------|
Db|-----------------------------------------------------------------------|
Ab|--------------------------/10-10-9-9-5-5-------------5-5---------------|
Eb|--3-3-3-3-3-3-3-3-3-3-3-3----------------7-7-5-5-7-7-----7-7-5-5-7-7---|
 
Gb|-----------------------------------------------------------------------|
Db|-----------------------------------------------------------------------|
Ab|--------------------------/10-10-9-9-5-5-------------5-5---------------|
Eb|--3-3-3-3-3-3-3-3-3-3-3-3----------------7-7-5-5-7-7-----7-7-5-5-7-7---|
 
[Bridge]
Gb|--------------------------------------------------------------------|
Db|--------------------------------------------------------------------|
Ab|--------------------------------------------------------------------|
Eb|--2-------------2-3---------------5-5-5-5-5-5-5-5-5-5-5-5-5---3-----|
 
Gb|-------------------------------------------------------------------------------------------|
Db|-------------------------------------------------------------------------------------------|
Ab|----------------------------------/10h12-12-12-10h12-12-12-10h12-12-12-10h12-10h12-10h12\--|
Eb|--2-------------2-3------------------------------------------------------------------------|
 
[Guitar Solo]
Gb|------------------------------------------------------------------------|
Db|------------------------------------------------------------------------|
Ab|--3-3-3-3-3-3-3-3-5-5-5-5-5-5-5-5-10-10-10-10-9-9-9-9-7-7-7-7-5-5-5-5---|
Eb|------------------------------------------------------------------------|
 
Gb|--------------------------------------------------------------------|
Db|--------------------------------------------------------------------|
Ab|--3-3-3-3-3-3-3-3-5-5-5-5-5-5-5-5-------2-3---2---------------------|
Eb|----------------------------------3---------------3-----------------|
 
[Verse]
Gb|--------------------------------------------------------------------|
Db|--------------------------------------------------------------------|
Ab|--5-5-5-5-5-5-5-5-5-5-5-5-5-5-5-5-----------------------------------|
Eb|----------------------------------3-3-3-3-3-3-3-3-3-3-3-3-3-3-3-3---|
 
Gb|--------------------------------------------------------------------|
Db|--------------------------------------------------------------------|
Ab|--5-5-5-5-5-5-5-5-5-5-5-5-5-5-5-5-------------------------0-0-2-2---|
Eb|----------------------------------3-3-3-3-3-3-3-3-3-3-3-3-----------|
 
[Chorus]
Gb|------------------------------------------------------------------------|
Db|------------------------------------------------------------------------|
Ab|--3-3-3-3-3-3-3-3-5-5-5-5-5-5-5-5-10-10-10-10-9-9-9-9-7-7-7-7-5-5-5-5---|
Eb|------------------------------------------------------------------------|
 
Gb|------------------------------------|
Db|------------------------------------|
Ab|--3-3-3-3-3-3-3-3-5-5-5-5-5-5-5-5---|
Eb|------------------------------------|
 
Gb|-----------------------------------------------------------------------|
Db|-----------------------------------------------------------------------|
Ab|--------------------------/10-10-9-9-5-5-------------5-5---------------|
Eb|--3-3-3-3-3-3-3-3-3-3-3-3----------------7-7-5-5-7-7-----7-7-5-5-7-7---|
 
Gb|-----------------------------------------------------------------------|
Db|-----------------------------------------------------------------------|
Ab|--------------------------/10-10-9-9-5-5-------------5-5---------------|
Eb|--3-3-3-3-3-3-3-3-3-3-3-3----------------7-7-5-5-7-7-----7-7-5-5-7-7---|
 
Gb|-----------------------------------------------------------------------|
Db|-----------------------------------------------------------------------|
Ab|--------------------------/10-10-9-9-5-5-------------5-5---------------|
Eb|--3-3-3-3-3-3-3-3-3-3-3-3----------------7-7-5-5-7-7-----7-7-5-5-7-7---|
 
Gb|-----------------------------------------------------------------------|
Db|-----------------------------------------------------------------------|
Ab|--------------------------/10-10-9-9-5-5-------------5-5---------------|
Eb|--3-3-3-3-3-3-3-3-3-3-3-3----------------7-7-5-5-7-7-----7-7-5-5-7-7---|
 
Gb|-----------------------------------------|
Db|-----------------------------------------|
Ab|-----------------------------------------|
Eb|--3-------/15-------------\3-------/7\---|
 
            
Submit corrections

↑ Back to top | Tablatures and chords for acoustic guitar and electric guitar, ukulele, drums are parodies/interpretations of the original songs. You may use it for private study, scholarship, research or language learning purposes only