» » »

Backyard Babies - Ghetto You Tabs

Artists:  A B C D E F G H I J K L M N O P Q R S T U V W X Y Z # 

Ghetto You Tabs

(ver. 1) Click to play this song!
Backyard Babies
 Rating:
4/5 (4 votes)

 Ghetto You lessons Tabs too difficult? Try these video lessons and learn fast
 
                'GHETTO YOU' by Backyard Babies 

Tuning: ½ step down (Eb Ab Db Gb Bb eb)

Chords used: 
F#5: 244xxx 
A5 : 577xxx
D5 : x577xx
B5 : x244xx
C#5: x466xx
E5 : x799xx

(Intro)

  Riff 1
e|-------------------------------------------|
B|-------------------------------------------|
G|-------------------------------------------|
D|-11-11-9-9-11-11-9-9-11--7-7-7-6-4-4-4-4-6-|
A|-9--9--9-9-9--9--9-9-9---5-5-5-4-2-2-2-2-4-| x3
E|-------------------------------------------|
  
 Riff 2
e|-------------------------------------------|
B|-------------------------------------------|
G|-------------------------------------------|
D|-4-4-4-4-4-4-4-4-4--7-7-7-6-4-4-4-4-6------|
A|-4-4-4-4-4-4-4-4-4--5-5-5-4-2-2-2-2-4------| x2
E|-2-2-0-0-2-2-0-0-2-------------------------|

 Riff 3
e|-----------2-2-2-2-----------|
B|-----------2-2-2-2-----------|
G|-----------------------------|
D|-4-4-4-4-4---------4-4-4-4-4-|
A|-4-4-4-4-4---------4-4-4-4-4-| x2
E|-2-2-0-0-2---------2-2-0-0-2-|

F#5              A5
You wanna hear a story
D5                     B5
A story 'bout a broken man
F#5                  A5
You're just trippin' nowhere
D5                       B5
Or is it hard for you to understand
B5
That I'm a man

D5                       F#5 
I'm so sick and tired of you
F#5
You better not touch me
D5                       F#5 
I'm so sick and tired of you
F#5
And the crazy things you do
D5
I'm getting sick and tired
E5
I'm getting sick and tired


	CHORUS: Riff 1 (x2) + Riff 3 (x1)

	And I'll die just to get to you
	Baby, I will lie just to get to you
	But I ain't never gonna cry

F#5                       A5
So you wanna hear another story
D5                           B5
Another story in a different place
F#5                  A5
But when it comes to lovin'
D5                             B5
I will leave you with a broken face
B5
Cause I'm a man

D5                       F#5 
I'm so sick and tired of you
F#5
You better not touch me
D5                       F#5 
I'm so sick and tired of you
F#5
And the crazy things you do
D5
I'm getting sick and tired
E5
I'm getting sick and tired


	CHORUS: Riff 1 (x2) + Riff 3 (x1)

	And I'll die just to get to you
	Baby, I will lie just to get to you
	But I ain't never gonna cry
	No way

 Pre-solo:
e|-----------------------------------------------------|
B|-----------------------------------------------------|
G|-----------------------7-7-7-7-6---------------------|
D|-4-4-4-4-4--x-x--4-4-4-7-7-7-7-6--4-4-4-4-4--x-x-x-x-|
A|-4-4-4-4-4--x-x--4-4-4-5-5-5-5-4--4-4-4-4-4--x-x-x-x-|
E|-2-2-0-0-2--x-x--2-2-0------------2-2-0-0-2--x-x-x-x-|

e|---------------------------------------------|
B|---------------------------------------------|
G|-------7-7-7-7-6-------------------7-7-7-6-4-|
D|-4-4-4-7-7-7-7-6--4-4-4-4-4--------7-7-7-6-4-|
A|-4-4-4-5-5-5-5-4--4-4-4-4-4--------5-5-5-4-2-|
E|-2-2-0------------2-2-0-0-2-/8~\2------------|

Solo: D5 F#5
      D5 E5 F#5

  (Something like this, not 100% sure)
e|-------10-10-10-10-10-10-10-10-10--------------------------|
B|-------10-10-10-10-10-10-10-10-10--------------------------|
G|-12b14-----------------------------6~-6~-6~-6~-6~-6~-6~-6~-|
D|-----------------------------------------------------------|
A|-----------------------------------------------------------|
E|-----------------------------------------------------------|

e|-------10-10-10-10-10-10-10-10-10-------12-------12------12-------12-14\10-|
B|-------10-10-10-10-10-10-10-10-10-12h14----12h14---12h14----12h14----14\10-|
G|-12b14---------------------------------------------------------------------|
D|---------------------------------------------------------------------------|
A|---------------------------------------------------------------------------|
E|---------------------------------------------------------------------------|

F#5
I don't believe that I will live forever
      E5
But I do believe that I will die
              D5
And I'm gonna drive by a hundred miles
             B5 (let ring)
'Cause I'm a high-flying sucker with a super smile

(Outro)
	Riff 1, fade out

Die
Just to get to you
Baby, I will lie just to get to you
But I ain't gonna cry
Just to get to you
Baby, I will die
Just to get to you
Baby, I will die, die
Just to get to you
And, baby, I will lie
Just to get to you
But I ain't gonna cry
Just to get to you
But, baby, I will die
Just to get to you
            
Submit corrections


        Ghetto You lessons Hard to play? Try these video lessons and learn fast Ghetto You lessons
        
↑ Back to top | Tablatures and chords for acoustic guitar and electric guitar, ukulele, drums are parodies/interpretations of the original songs. You may use it for private study, scholarship, research or language learning purposes only