» » »

Backyard Babies - Everybody Ready Bass

Artists:  A B C D E F G H I J K L M N O P Q R S T U V W X Y Z # 

Everybody Ready Bass

(ver. 1) Click to play this song!
Backyard Babies
 Rating:
4.3/5 (6 votes)

 Everybody Ready  lessons Tabs too difficult? Try these video lessons and learn fast
 
                Tuning: Standard

Intro (0:06)
G|--------------------------------------------------------------------|
D|o------------------------------------------------------------------o|
A|o-----------------6---------------------6-----------6-6-6-6-6-6----o|
E|----6---8-------------8---------6---8-------8---6-------------------|

G|---------------------------------------------------------------|
D|---------------------------------------------------------------|
A|---------------------------------------------------------------|
E|----6---8-8-8-8-8-8-8-8-8-8-8-8-8-8-8-8-8-8-8-8-8-8-8-8/11\----|

Verse
G|-----------------------------------------------------------|
D|o---------------------------------------------------------o|
A|o---------------------------------------------------6-----o|
E|----8-8-8-8-8-8-8-8-8-8-8-8---1-----4-----6-----8----------|

G|-----------------------------------------------------------------------|
D|-----------------------------------------------------------------------|
A|------------------------------------3-3-3-3-3-3-3-3-3-3-3-3-3-3-3-3----|
E|----4-4-4-4-4-4-4-4-4-4-4-4-4-4-4-4------------------------------------|

G|-----------------------------------------------------------------------|
D|----6-6-6-6-6-6-6-6-6---5---3------/8-8-8-8-8-8-8-8-8-8-8-8-8-8-8-8----|
A|--------------------------------6--------------------------------------|
E|-----------------------------------------------------------------------|

Chorus
G|--------------------------------------------------------------------|
D|o------------------------------------------------------------------o|
A|o-----------------6---------------------6-----------6-6-6-6-6-6----o|
E|----6---8-------------8---------6---8-------8---6-------------------|

G|-------------------------------------------------------------|
D|-------------------------------------------------------------|
A|--------------------------------------------------------6----|
E|----6---8-8-8-8-8-8-8-8-8-8-8-8-8-8-8-8-8-8-8-8-8-8-8-8------|

Verse
G|-----------------------------------------------------------|
D|o---------------------------------------------------------o|
A|o---------------------------------------------------6-----o|
E|----8-8-8-8-8-8-8-8-8-8-8-8---1-----4-----6-----8----------|

G|-----------------------------------------------------------------------|
D|-----------------------------------------------------------------------|
A|------------------------------------3-3-3-3-3-3-3-3-3-3-3-3-3-3-3-3----|
E|----4-4-4-4-4-4-4-4-4-4-4-4-4-4-4-4------------------------------------|

G|-----------------------------------------------------------------------|
D|----6-6-6-6-6-6-6-6-6---5---3------/8-8-8-8-8-8-8-8-8-8-8-8-8-8-8-8----|
A|--------------------------------6--------------------------------------|
E|-----------------------------------------------------------------------|

Chorus                                                       Repeat x4
G|--------------------------------------------------------------------|
D|o------------------------------------------------------------------o|
A|o-----------------6---------------------6-----------6-6-6-6-6-6----o|
E|----6---8-------------8---------6---8-------8---6-------------------|

Bridge
G|-------------------------------------------------------------------------|
D|-----------------------------------------10------------------------------|
A|-------------------------------------------------------------------------|
E|----6---8~-------------8/------------------------------------------------|

G|-------------------------------------------------------------------------|
D|----10-----------------------------------10-----8------------------------|
A|------------------------------------------------------11-----10-----8----|
E|-------------------------------------------------------------------------|

Guitar Solo 
G|--------------------------------------------------------------------|
D|o------------------------------------------------------------------o|
A|o-----------------6---------------------6-----------6-6-6-6-6-6----o|
E|----6---8-------------8---------6---8-------8---6-------------------|

G|--------------------------------------------------------------------|
D|o------------------------------------------------------------------o|
A|o-----------------6---------------------6-----------6-6-6-6-6-6----o|
E|----6---8-8-8-8-8-----8-8-8-8-8-6---8-------8---6-------------------|

Verse
G|-----------------------------------------------------------|
D|o---------------------------------------------------------o|
A|o---------------------------------------------------6-----o|
E|----8-8-8-8-8-8-8-8-8-8-8-8---1-----4-----6-----8----------|

G|-----------------------------------------------------------------------|
D|-----------------------------------------------------------------------|
A|------------------------------------3-3-3-3-3-3-3-3-3-3-3-3-3-3-3-3----|
E|----4-4-4-4-4-4-4-4-4-4-4-4-4-4-4-4------------------------------------|

G|-----------------------------------/5-5-5-5-5-5-5-5-5-5-5-5-5-5-5-5----|
D|-----------------------------------------------------------------------|
A|-----------------------------------------------------------------------|
E|----4-4-4-4-4-4-4-4-4-4-4-4-4-4-4-4------------------------------------|

G|-------------------------------------------------------------------------------|
D|----6-------5-------3----------------------------------------------------------|
A|----------------------------6-------3-3-3-3-3-3-3-3/15-15-15-15-15-15-15-15----|
E|-------------------------------------------------------------------------------|

G|--------------------------------------------------------------------------------|
D|--------------------------------------------/8-8-8-8-8-8-8-8-8-8-8-8-8-8-8-8----|
A|---11-11-11-11-11-11-11-11-11---10---8---6--------------------------------------|
E|--------------------------------------------------------------------------------|

Outro Chorus
G|--------------------------------------------------------------------|
D|o------------------------------------------------------------------o|
A|o-----------------6---------------------6-----------6-6-6-6-6-6----o|
E|----6---8-------------8---------6---8-------8---6-------------------|

G|--------------------------------------------------------------------|
D|--------------------------------------------------------------------|
A|------------------6---------------------6-----------6-6-6-6-6-6-----|
E|----6---8-8-8-8-8-----8-8-8-8-8-6---8-------8---6-------------------|

G|-----------------------------------------------------------------------|
D|-----------------------------------------------------------------------|
A|------------------6---------------------6-----------6-6-6-6-6-6-6-6----|
E|----6---8-8-8-8-8-----8-8-8-8-8-6---8-------8---6----------------------|

G|--------------------------------------------|
D|--------------------------------------------|
A|----6-6-6-6-6-6-6-6-------------------------|
E|--------------------6---8\------------------|
            
Submit corrections


        Everybody Ready  lessons Hard to play? Try these video lessons and learn fast Everybody Ready  lessons
        
↑ Back to top | Tablatures and chords for acoustic guitar and electric guitar, ukulele, drums are parodies/interpretations of the original songs. You may use it for private study, scholarship, research or language learning purposes only