» » »

Backstreet Boys - Ok Tabs

Artists:  A B C D E F G H I J K L M N O P Q R S T U V W X Y Z # 

Ok Tabs

(ver. 1) Click to play this song!
Backstreet Boys
 Rating:
4.3/5 (19 votes)

 Ok lessons Tabs too difficult? Try these video lessons and learn fast
 
                [Intro]

e|----0-------|--------------------|----0------|--------------------|
B|------1-----|----1----------0h1--|------1----|----1---------------|
G|---------0--|------0h2--0h2------|--------0--|------0h2--2p0------|
D|------------|--3-----------------|-----------|--3------------3p2--| (2x)
A|--3---------|--------------------|--0--------|--------------------|
E|------------|--------------------|-----------|--------------------|


[Verse]

e|----0-------|--------------------|----0------|--------------------|
B|------1-----|----1----------0h1--|------1----|----1---------------|
G|---------0--|------0h2--0h2------|--------0--|------0h2--2p0------|
D|------------|--3-----------------|-----------|--3------------3p2--| (4x)
A|--3---------|--------------------|--0--------|--------------------|
E|------------|--------------------|-----------|--------------------|


[Chorus]

e|----0-------|--------------------|----0------|--------------------|
B|------1-----|----1----------0h1--|------1----|----1---------------|
G|---------0--|------0h2--0h2------|--------0--|------0h2--2p0------|
D|------------|--3-----------------|-----------|--3------------3p2--| (2x)
A|--3---------|--------------------|--0--------|--------------------|
E|------------|--------------------|-----------|--------------------|

Guitar nº2:

e|--0----|--1----|--0----|--1----|
B|--1----|--1----|--1----|--1----|
G|--0----|--2----|--0----|--2----|
D|--2----|--3----|--2----|--3----| (2x)
A|--3----|--3----|--0----|--3----|
E|-------|--1----|-------|--1----|


[Verse]

e|----0-------|--------------------|----0------|--------------------|
B|------1-----|----1----------0h1--|------1----|----1---------------|
G|---------0--|------0h2--0h2------|--------0--|------0h2--2p0------|
D|------------|--3-----------------|-----------|--3------------3p2--| (4x)
A|--3---------|--------------------|--0--------|--------------------|
E|------------|--------------------|-----------|--------------------|


[Pre-Chorus]

e|----0-------|--------------------|----0------|--------------------|
B|------1-----|----1----------0h1--|------1----|----1---------------|
G|---------0--|------0h2--0h2------|--------0--|------0h2--2p0------|
D|------------|--3-----------------|-----------|--3------------3p2--| 
A|--3---------|--------------------|--0--------|--------------------|
E|------------|--------------------|-----------|--------------------|

Guitar nº2:

e|--0----|--1----|--0----|--1--|
B|--1----|--1----|--1----|--1--|
G|--0----|--2----|--0----|--2--|
D|--2----|--3----|--2----|--3--| 
A|--3----|--3----|--0----|--3--|
E|-------|--1----|-------|--1--|


[Chorus]

e|----0-------|--------------------|----0------|--------------------|
B|------1-----|----1----------0h1--|------1----|----1---------------|
G|---------0--|------0h2--0h2------|--------0--|------0h2--2p0------|
D|------------|--3-----------------|-----------|--3------------3p2--| (2x)
A|--3---------|--------------------|--0--------|--------------------|
E|------------|--------------------|-----------|--------------------|

Guitar nº2:

e|--0----|--1----|--0----|--1----|
B|--1----|--1----|--1----|--1----|
G|--0----|--2----|--0----|--2----|
D|--2----|--3----|--2----|--3----| (2x)
A|--3----|--3----|--0----|--3----|
E|-------|--1----|-------|--1----|


[Bridge]

e|----0-------|--------------------|----0------|--------------------|
B|------1-----|----1----------0h1--|------1----|----1---------------|
G|---------0--|------0h2--0h2------|--------0--|------0h2--2p0------|
D|------------|--3-----------------|-----------|--3------------3p2--| (2x)
A|--3---------|--------------------|--0--------|--------------------|
E|------------|--------------------|-----------|--------------------|

Guitar nº2:

e|--0----|--1----|--0----|--1----|
B|--1----|--1----|--1----|--1----|
G|--0----|--2----|--0----|--2----|
D|--2----|--3----|--2----|--3----| (2x)
A|--3----|--3----|--0----|--3----|
E|-------|--1----|-------|--1----|


[Pre-Chorus]

e|----0-------|--------------------|----0------|--------------------|
B|------1-----|----1----------0h1--|------1----|----1---------------|
G|---------0--|------0h2--0h2------|--------0--|------0h2--2p0------|
D|------------|--3-----------------|-----------|--3------------3p2--|
A|--3---------|--------------------|--0--------|--------------------|
E|------------|--------------------|-----------|--------------------|

e|--|--|--|--|
B|--|--|--|--|
G|--|--|--|--|
D|--|--|--|--|
A|--|--|--|--|
E|--|--|--|--|

Guitar nº2:

e|--0----|--1----|--0----|--1----|
B|--1----|--1----|--1----|--1----|
G|--0----|--2----|--0----|--2----|
D|--2----|--3----|--2----|--3----| 
A|--3----|--3----|--0----|--3----|
E|-------|--1----|-------|--1----|

e|--0----|--1----|--0----|--1--|
B|--1----|--1----|--1----|--1--|
G|--0----|--2----|--0----|--2--|
D|--2----|--3----|--2----|--3--| 
A|--3----|--3----|--0----|--3--|
E|-------|--1----|-------|--1--|


[Chorus]

e|--|------------|----0------|--------------------|
B|--|-------0h1--|------1----|----1---------------|
G|--|---0h2------|--------0--|------0h2--2p0------|
D|--|------------|-----------|--3------------3p2--|
A|--|------------|--0--------|--------------------|
E|--|------------|-----------|--------------------|

e|----0-------|--------------------|----0------|--------------------|
B|------1-----|----1----------0h1--|------1----|----1---------------|
G|---------0--|------0h2--0h2------|--------0--|------0h2--2p0------|
D|------------|--3-----------------|-----------|--3------------3p2--|
A|--3---------|--------------------|--0--------|--------------------|
E|------------|--------------------|-----------|--------------------|


Guitar nº2:

e|--|--|--0----|--1----|
B|--|--|--1----|--1----|
G|--|--|--0----|--2----|
D|--|--|--2----|--3----| 
A|--|--|--0----|--3----|
E|--|--|-------|--1----|

e|--0----|--1----|--0----|--1----|
B|--1----|--1----|--1----|--1----|
G|--0----|--2----|--0----|--2----|
D|--2----|--3----|--2----|--3----| 
A|--3----|--3----|--0----|--3----|
E|-------|--1----|-------|--1----|


[Outro]

e|----0-------|--------------------|----0------|--------------------|
B|------1-----|----1----------0h1--|------1----|----1---------------|
G|---------0--|------0h2--0h2------|--------0--|------0h2--2p0------|
D|------------|--3-----------------|-----------|--3------------3p2--|
A|--3---------|--------------------|--0--------|--------------------|
E|------------|--------------------|-----------|--------------------|

e|----0-------|--------------------|----0------|------------|
B|------1-----|----1----------0h1--|------1----|----1-------|
G|---------0--|------0h2--0h2------|--------0--|------0h2---|
D|------------|--3-----------------|-----------|--3---------|
A|--3---------|--------------------|--0--------|------------|
E|------------|--------------------|-----------|------------|

Guitar nº2:

e|--0----|--1----|--0----|--1----|
B|--1----|--1----|--1----|--1----|
G|--0----|--2----|--0----|--2----|
D|--2----|--3----|--2----|--3----| 
A|--3----|--3----|--0----|--3----|
E|-------|--1----|-------|--1----|

e|--0----|--1----|--0----|--1--|
B|--1----|--1----|--1----|--1--|
G|--0----|--2----|--0----|--2--|
D|--2----|--3----|--2----|--3--| 
A|--3----|--3----|--0----|--3--|
E|-------|--1----|-------|--1--|

            
Submit corrections


        Ok lessons Hard to play? Try these video lessons and learn fast Ok lessons
        
↑ Back to top | Tablatures and chords for acoustic guitar and electric guitar, ukulele, drums are parodies/interpretations of the original songs. You may use it for private study, scholarship, research or language learning purposes only