» » »

Backstreet Boys - Just Like You Like It Tabs

Artists:  A B C D E F G H I J K L M N O P Q R S T U V W X Y Z # 

Just Like You Like It Tabs

(ver. 1) Click to play this song!
Backstreet Boys
 Rating:
4.3/5 (25 votes)

 Just Like You Like It lessons Tabs too difficult? Try these video lessons and learn fast
 
                [Intro]

e|----7/10-------|----7/10-------|----7/10-------|-----------|
B|--8------8/10--|--8------8/10--|--8------8/10--|--8-7------|
G|---------------|---------------|---------------|------9----|
D|---------------|---------------|---------------|-----------|
A|---------------|---------------|---------------|-----------|
E|---------------|---------------|---------------|-----------|


[Verse 1]

e|--|--|--|--|--3----|--3----|--3----|--3----|
B|--|--|--|--|--3----|--3----|--3----|--3----|
G|--|--|--|--|--0----|--2----|--0----|--0----|
D|--|--|--|--|--0----|--0----|--2----|--2----|
A|--|--|--|--|--2----|-------|--2----|--3----|
E|--|--|--|--|--3----|-------|--0----|-------|


[Chorus]

e|--3-3-3-3-3-3-3-3--|--3-3-3-3-3-3-3-3--|--3-3-3-3-3-3-3-3--|--3-3-3-3-3-3-3-3--|
B|--3-3-3-3-3-3-3-3--|--3-3-3-3-3-3-3-3--|--3-3-3-3-3-3-3-3--|--3-3-3-3-3-3-3-3--|
G|--0-0-0-0-0-0-0-0--|--2-2-2-2-2-2-2-2--|--0-0-0-0-0-0-0-0--|--0-0-0-0-0-0-0-0--|
D|--0-0-0-0-0-0-0-0--|--0-0-0-0-0-0-0-0--|--2-2-2-2-2-2-2-2--|--2-2-2-2-2-2-2-2--| (2x)
A|--2-2-2-2-2-2-2-2--|-------------------|--2-2-2-2-2-2-2-2--|--3-3-3-3-3-3-3-3--|
E|--3-3-3-3-3-3-3-3--|-------------------|--0-0-0-0-0-0-0-0--|-------------------|


[Instrumental]

e|----7/10-------|----7/10-------|----7/10-------|-----------|
B|--8------8/10--|--8------8/10--|--8------8/10--|--8-7------|
G|---------------|---------------|---------------|------9----|
D|---------------|---------------|---------------|-----------|
A|---------------|---------------|---------------|-----------|
E|---------------|---------------|---------------|-----------|

Guitar nº2:

e|--3----|--3----|--3----|--3----|
B|--3----|--3----|--3----|--3----|
G|--0----|--2----|--0----|--0----|
D|--0----|--0----|--2----|--2----|
A|--2----|-------|--2----|--3----|
E|--3----|-------|--0----|-------|


[Verse 2]

e|--3-3-3-3-3-3-3-3--|--3-3-3-3-3-3-3-3--|--3-3-3-3-3-3-3-3--|--3-3-3-3-3-3-3-3--|
B|--3-3-3-3-3-3-3-3--|--3-3-3-3-3-3-3-3--|--3-3-3-3-3-3-3-3--|--3-3-3-3-3-3-3-3--|
G|--0-0-0-0-0-0-0-0--|--2-2-2-2-2-2-2-2--|--0-0-0-0-0-0-0-0--|--0-0-0-0-0-0-0-0--|
D|--0-0-0-0-0-0-0-0--|--0-0-0-0-0-0-0-0--|--2-2-2-2-2-2-2-2--|--2-2-2-2-2-2-2-2--| (2x)
A|--2-2-2-2-2-2-2-2--|-------------------|--2-2-2-2-2-2-2-2--|--3-3-3-3-3-3-3-3--|
E|--3-3-3-3-3-3-3-3--|-------------------|--0-0-0-0-0-0-0-0--|-------------------|


[Chorus]

e|--3-3-3-3-3-3-3-3--|--3-3-3-3-3-3-3-3--|--3-3-3-3-3-3-3-3--|--3-3-3-3-3-3-3-3--|
B|--3-3-3-3-3-3-3-3--|--3-3-3-3-3-3-3-3--|--3-3-3-3-3-3-3-3--|--3-3-3-3-3-3-3-3--|
G|--0-0-0-0-0-0-0-0--|--2-2-2-2-2-2-2-2--|--0-0-0-0-0-0-0-0--|--0-0-0-0-0-0-0-0--|
D|--0-0-0-0-0-0-0-0--|--0-0-0-0-0-0-0-0--|--2-2-2-2-2-2-2-2--|--2-2-2-2-2-2-2-2--| (2x)
A|--2-2-2-2-2-2-2-2--|-------------------|--2-2-2-2-2-2-2-2--|--3-3-3-3-3-3-3-3--|
E|--3-3-3-3-3-3-3-3--|-------------------|--0-0-0-0-0-0-0-0--|-------------------|


[Post-Chorus]

e|----7/10-------|----7/10-------|----7/10-------|-----------|
B|--8------8/10--|--8------8/10--|--8------8/10--|--8-7------|
G|---------------|---------------|---------------|------9----|
D|---------------|---------------|---------------|-----------|
A|---------------|---------------|---------------|-----------|
E|---------------|---------------|---------------|-----------|

Guitar nº2:

e|--3-3-3-3-3-3-3-3--|--3-3-3-3-3-3-3-3--|--3-3-3-3-3-3-3-3--|--3-3-3-3-3-3-3-3--|
B|--3-3-3-3-3-3-3-3--|--3-3-3-3-3-3-3-3--|--3-3-3-3-3-3-3-3--|--3-3-3-3-3-3-3-3--|
G|--0-0-0-0-0-0-0-0--|--2-2-2-2-2-2-2-2--|--0-0-0-0-0-0-0-0--|--0-0-0-0-0-0-0-0--|
D|--0-0-0-0-0-0-0-0--|--0-0-0-0-0-0-0-0--|--2-2-2-2-2-2-2-2--|--2-2-2-2-2-2-2-2--| 
A|--2-2-2-2-2-2-2-2--|-------------------|--2-2-2-2-2-2-2-2--|--3-3-3-3-3-3-3-3--|
E|--3-3-3-3-3-3-3-3--|-------------------|--0-0-0-0-0-0-0-0--|-------------------|



[Bridge]

e|--3-----3-3-----3--|--3-----3-2------|--3-----3-3-----3--|--3-----3-2------|
B|----3-------3------|----3-------3----|----3-------3------|----3-------3----|
G|------0-------0----|------2-------2--|------0-------0----|------0-------0--|
D|-------------------|--0-------0------|-------------------|-----------------|
A|-------------------|-----------------|-------------------|--3-------3------|
E|--3-------3--------|-----------------|--0-------0--------|-----------------|


[Chorus]

e|--7-7-7-7-7-7-7-7--|--5-5-5-5-5-5-5-5--|--7-7-7-7-7-7-7-7--|--8-8-8-8-8-8-8-8--|
B|--7-7-7-7-7-7-7-7--|--7-7-7-7-7-7-7-7--|--7-7-7-7-7-7-7-7--|--7-7-7-7-7-7-7-7--|
G|-------------------|-------------------|-------------------|-------------------|
D|-------------------|-------------------|-------------------|-------------------| (2x)
A|-------------------|-------------------|-------------------|-------------------|
E|-------------------|-------------------|-------------------|-------------------|

Guitar nº2:

e|--3----|--3----|--3----|--3----|
B|--3----|--3----|--3----|--3----|
G|--0----|--2----|--0----|--0----|
D|--0----|--0----|--2----|--2----|
A|--2----|-------|--2----|--3----|
E|--3----|-------|--0----|-------|

e|--3-3-3-3-3-3-3-3--|--3-3-3-3-3-3-3-3--|--3-3-3-3-3-3-3-3--|--3-3-3-3-3-3-3-3--|
B|--3-3-3-3-3-3-3-3--|--3-3-3-3-3-3-3-3--|--3-3-3-3-3-3-3-3--|--3-3-3-3-3-3-3-3--|
G|--0-0-0-0-0-0-0-0--|--2-2-2-2-2-2-2-2--|--0-0-0-0-0-0-0-0--|--0-0-0-0-0-0-0-0--|
D|--0-0-0-0-0-0-0-0--|--0-0-0-0-0-0-0-0--|--2-2-2-2-2-2-2-2--|--2-2-2-2-2-2-2-2--| 
A|--2-2-2-2-2-2-2-2--|-------------------|--2-2-2-2-2-2-2-2--|--3-3-3-3-3-3-3-3--|
E|--3-3-3-3-3-3-3-3--|-------------------|--0-0-0-0-0-0-0-0--|-------------------|


[Post-Chorus]

e|----7/10-------|----7/10-------|----7/10-------|-----------|
B|--8------8/10--|--8------8/10--|--8------8/10--|--8-7------|
G|---------------|---------------|---------------|------9----|
D|---------------|---------------|---------------|-----------|
A|---------------|---------------|---------------|-----------|
E|---------------|---------------|---------------|-----------|

e|--7-7-7-7-7-7-7-7--|--5-5-5-5-5-5-5-5--|--7-7-7-7-7-7-7-7--|--8-8-8-8-8-8-8-8--|
B|--7-7-7-7-7-7-7-7--|--7-7-7-7-7-7-7-7--|--7-7-7-7-7-7-7-7--|--7-7-7-7-7-7-7-7--|
G|-------------------|-------------------|-------------------|-------------------|
D|-------------------|-------------------|-------------------|-------------------| (2x)
A|-------------------|-------------------|-------------------|-------------------|
E|-------------------|-------------------|-------------------|-------------------|

Guitar nº2:

e|--3-3-3-3-3-3-3-3--|--3-3-3-3-3-3-3-3--|--3-3-3-3-3-3-3-3--|--3-3-3-3-3-3-3-3--|
B|--3-3-3-3-3-3-3-3--|--3-3-3-3-3-3-3-3--|--3-3-3-3-3-3-3-3--|--3-3-3-3-3-3-3-3--|
G|--0-0-0-0-0-0-0-0--|--2-2-2-2-2-2-2-2--|--0-0-0-0-0-0-0-0--|--0-0-0-0-0-0-0-0--|
D|--0-0-0-0-0-0-0-0--|--0-0-0-0-0-0-0-0--|--2-2-2-2-2-2-2-2--|--2-2-2-2-2-2-2-2--| (3x)
A|--2-2-2-2-2-2-2-2--|-------------------|--2-2-2-2-2-2-2-2--|--3-3-3-3-3-3-3-3--|
E|--3-3-3-3-3-3-3-3--|-------------------|--0-0-0-0-0-0-0-0--|-------------------|

            
Submit corrections


        Just Like You Like It lessons Hard to play? Try these video lessons and learn fast Just Like You Like It lessons
        
↑ Back to top | Tablatures and chords for acoustic guitar and electric guitar, ukulele, drums are parodies/interpretations of the original songs. You may use it for private study, scholarship, research or language learning purposes only