» » »

Backstreet Boys - Is It Just Me Tabs

Artists:  A B C D E F G H I J K L M N O P Q R S T U V W X Y Z # 

Is It Just Me Tabs

(ver. 1) Click to play this song!
Backstreet Boys
 Rating:
4.4/5 (17 votes)

 Is It Just Me lessons Tabs too difficult? Try these video lessons and learn fast
 
                [Intro]

e|---------|---------|
B|--3---0--|--1---3--|
G|--0---0--|--0---2--|
D|---------|------0--| 2x
A|---------|--3------|
E|--3---0--|---------|


[Verse 1]

e|---------|---------|
B|--3---0--|--1---3--|
G|--0---0--|--0---2--|
D|---------|------0--| 7x
A|---------|--3------|
E|--3---0--|---------|

e|---------|-------|
B|--3---0--|--1----|
G|--0---0--|--0----|
D|---------|-------| 
A|---------|--3----|
E|--3---0--|-------|


[Chorus]

e|---------|---------|
B|--3---0--|--1---3--|
G|--0---0--|--0---2--|
D|---------|------0--| 4x
A|---------|--3------|
E|--3---0--|---------|


[Post-Chorus]

e|---------|---------|
B|--3---0--|--1---3--|
G|--0---0--|--0---2--|
D|---------|------0--| 2x
A|---------|--3------|
E|--3---0--|---------|


[Verse 2]

e|---------|---------|
B|--3---0--|--1---3--|
G|--0---0--|--0---2--|
D|---------|------0--| 4x
A|---------|--3------|
E|--3---0--|---------|


[Pre-Chorus]

e|--3----|--|--3----|--|
B|--3----|--|--3----|--|
G|-------|--|-------|--|
D|-------|--|-------|--|
A|-------|--|-------|--|
E|--3----|--|--3----|--|


[Chorus]

e|---------|---------|
B|--3---0--|--1---3--|
G|--0---0--|--0---2--|
D|---------|------0--| 4x
A|---------|--3------|
E|--3---0--|---------|

Guitar nº2:

e|-------------|--------|
B|---------15--|--------|
G|--12--12-----|--12----|
D|-------------|--------| 4x
A|-------------|--------|
E|-------------|--------|


[Post-Chorus]

e|---------|---------|
B|--3---0--|--1---3--|
G|--0---0--|--0---2--|
D|---------|------0--| 2x
A|---------|--3------|
E|--3---0--|---------|

Synth:

e|-------------|------------15h17-14--|
B|---------15--|------15h17-----------|
G|--12--12-----|--12------------------|
D|-------------|----------------------| 2x
A|-------------|----------------------|
E|-------------|----------------------|


[Bridge]

e|---------|---------|
B|--3---0--|--1---3--|
G|--0---0--|--0---2--|
D|---------|------0--| 4x
A|---------|--3------|
E|--3---0--|---------|


[Instrumental]

e|---------|---------|
B|--3---0--|--1---3--|
G|--0---0--|--0---2--|
D|---------|------0--| 2x
A|---------|--3------|
E|--3---0--|---------|

Guitar nº2:

e|------------------------|------------------------|
B|-------12-12-------12~--|--------12-12-------12--|
G|--12\--------12h14------|--12h14-------12h14-----|
D|------------------------|------------------------| 2x
A|------------------------|------------------------|
E|------------------------|------------------------|


[Chorus]

e|---------|---------|
B|--3---0--|--1---3--|
G|--0---0--|--0---2--|
D|---------|------0--| 4x
A|---------|--3------|
E|--3---0--|---------|

Guitar nº2:

e|-------------|--------|
B|---------15--|--------|
G|--12--12-----|--12----|
D|-------------|--------| 4x
A|-------------|--------|
E|-------------|--------|


[Post-Chorus]

e|---------|---------|
B|--3---0--|--1---3--|
G|--0---0--|--0---2--|
D|---------|------0--| 4x
A|---------|--3------|
E|--3---0--|---------|

Synth:

e|-------------|------------15h17-14--|
B|---------15--|------15h17-----------|
G|--12--12-----|--12------------------|
D|-------------|----------------------| 4x
A|-------------|----------------------|
E|-------------|----------------------|


[Outro]

e|---------|---------|
B|--3---0--|--1---3--|
G|--0---0--|--0---2--|
D|---------|------0--| 2x
A|---------|--3------|
E|--3---0--|---------|            
Submit corrections


        Is It Just Me lessons Hard to play? Try these video lessons and learn fast Is It Just Me lessons
        
↑ Back to top | Tablatures and chords for acoustic guitar and electric guitar, ukulele, drums are parodies/interpretations of the original songs. You may use it for private study, scholarship, research or language learning purposes only