Home » B » Baby Bash »

Baby Bash - Suga Suga Tabs

Artists:  A B C D E F G H I J K L M N O P Q R S T U V W X Y Z # 

Suga Suga Tabs

(ver. 1) Click to play this song!
Baby Bash
[Intro]
e|---------------------------------------------------------------------------|
B|---1---1h3p1---------------------------------------------------------------|
G|-----2---------0---0---0h2p0-------------------2---2h4p2---0---------------|
D|-----------------2---2-------2---2-------4---------------------------------|
A|-0-----------0-----------------3---3-3\5---5-0---0-------0-----------------|
E|---------------------------------------------------------------------------|

[Pre-chorus]
e|---------------------------------------------------------------------------|
B|-------0-0-0-0-------0--------------------0--------------------------------|
G|-0-2-0---------2-0-2---2-0--0-2-2-2-0-2-0---2-0----------------------------|
D|---------------------------------------------------------------------------|
A|---------------------------------------------------------------------------|
E|---------------------------------------------------------------------------|

e|---------------------------------------------------------------------------|
B|-0-0-0-0-0-3-0------------------0------------------------------------------|
G|---------------2-2-0--2-0-2-0-2---2-0-0------------------------------------|
D|---------------------------------------------------------------------------|
A|---------------------------------------------------------------------------|
E|---------------------------------------------------------------------------|

[Chorus]
e|---------------------------------------------------------------------------|
B|-----------0-----0------------0--------------------------------------------|
G|-2-0-2-0-2---2-0----2-0-2-0-2---2-0-0--------------------------------------|
D|---------------------------------------------------------------------------|
A|---------------------------------------------------------------------------|
E|---------------------------------------------------------------------------|

e|---------------------------------------------------------------------------|
B|-3-3-1-0-------0--------------0--------------------------------------------|
G|---------2-0-2---2--2-0-2-0-2---2-0--0-------------------------------------|
D|------------------------------------2--------------------------------------|
A|---------------------------------------------------------------------------|
E|---------------------------------------------------------------------------|

[Verse]
e|---------------------------------------------------------------------------|
B|-1-3-1---------------------------------------------------------------------|
G|-------2-0---0-2-0-------0-----2---0-0-2-0---------------------------------|
D|-----------2-------2---2---0-4---2---------2-------------------------------|
A|---------------------3-----------------------------------------------------|
E|---------------------------------------------------------------------------|

e|---------------------------------------------------------------------------|
B|-1-3-1---------------------------------------------------------------------|
G|-------2-0---0-2-0-------0-----2---0-2-0-----------------------------------|
D|-----------2-------2---2---0-4---2-----------------------------------------|
A|---------------------3-----------------------------------------------------|
E|---------------------------------------------------------------------------|

e|---------------------------------------------------------------------------|
B|-1-3-1---------------------------------------------------------------------|
G|-------2-0---0-2-0-------0-----2---0-0-2-0---------------------------------|
D|-----------2-------2---2---0-4---2---------2-------------------------------|
A|---------------------3-----------------------------------------------------|
E|---------------------------------------------------------------------------|

e|---------------------------------------------------------------------------|
B|-1-3-1---------------------------------------------------------------------|
G|-------2-0---0-2-0-------0-----2---0-2-0-----------------------------------|
D|-----------2-------2---2---0-4---2-----------------------------------------|
A|---------------------3-----------------------------------------------------|
E|---------------------------------------------------------------------------|

[Pre-chorus]
e|---------------------------------------------------------------------------|
B|-------0-0-0-0-------0--------------------0--------------------------------|
G|-0-2-0---------2-0-2---2-0--0-2-2-2-0-2-0---2-0----------------------------|
D|---------------------------------------------------------------------------|
A|---------------------------------------------------------------------------|
E|---------------------------------------------------------------------------|

e|---------------------------------------------------------------------------|
B|-0-0-0-0-0-3-0------------------0------------------------------------------|
G|---------------2-2-0--2-0-2-0-2---2-0-0------------------------------------|
D|---------------------------------------------------------------------------|
A|---------------------------------------------------------------------------|
E|---------------------------------------------------------------------------|

[Chorus]
e|---------------------------------------------------------------------------|
B|-----------0-----0------------0--------------------------------------------|
G|-2-0-2-0-2---2-0----2-0-2-0-2---2-0-0--------------------------------------|
D|---------------------------------------------------------------------------|
A|---------------------------------------------------------------------------|
E|---------------------------------------------------------------------------|

e|---------------------------------------------------------------------------|
B|-3-3-1-0-------0--------------0--------------------------------------------|
G|---------2-0-2---2--2-0-2-0-2---2-0--0-------------------------------------|
D|------------------------------------2--------------------------------------|
A|---------------------------------------------------------------------------|
E|---------------------------------------------------------------------------|

[Verse]
e|---------------------------------------------------------------------------|
B|-1-3-1---------------------------------------------------------------------|
G|-------2-0---0-2-0-------0-----2---0-0-2-0---------------------------------|
D|-----------2-------2---2---0-4---2---------2-------------------------------|
A|---------------------3-----------------------------------------------------|
E|---------------------------------------------------------------------------|

e|---------------------------------------------------------------------------|
B|-1-3-1---------------------------------------------------------------------|
G|-------2-0---0-2-0-------0-----2---0-2-0-----------------------------------|
D|-----------2-------2---2---0-4---2-----------------------------------------|
A|---------------------3-----------------------------------------------------|
E|---------------------------------------------------------------------------|

e|---------------------------------------------------------------------------|
B|-1-3-1---------------------------------------------------------------------|
G|-------2-0---0-2-0-------0-----2---0-0-2-0---------------------------------|
D|-----------2-------2---2---0-4---2---------2-------------------------------|
A|---------------------3-----------------------------------------------------|
E|---------------------------------------------------------------------------|

e|---------------------------------------------------------------------------|
B|-1-3-1---------------------------------------------------------------------|
G|-------2-0---0-2-0-------0-----2---0-2-0-----------------------------------|
D|-----------2-------2---2---0-4---2-----------------------------------------|
A|---------------------3-----------------------------------------------------|
E|---------------------------------------------------------------------------|

[Pre-chorus]
e|---------------------------------------------------------------------------|
B|-------0-0-0-0-------0--------------------0--------------------------------|
G|-0-2-0---------2-0-2---2-0--0-2-2-2-0-2-0---2-0----------------------------|
D|---------------------------------------------------------------------------|
A|---------------------------------------------------------------------------|
E|---------------------------------------------------------------------------|

e|---------------------------------------------------------------------------|
B|-0-0-0-0-0-3-0------------------0------------------------------------------|
G|---------------2-2-0--2-0-2-0-2---2-0-0------------------------------------|
D|---------------------------------------------------------------------------|
A|---------------------------------------------------------------------------|
E|---------------------------------------------------------------------------|

[Chorus]
e|---------------------------------------------------------------------------|
B|-----------0-----0------------0--------------------------------------------|
G|-2-0-2-0-2---2-0----2-0-2-0-2---2-0-0--------------------------------------|
D|---------------------------------------------------------------------------|
A|---------------------------------------------------------------------------|
E|---------------------------------------------------------------------------|

e|---------------------------------------------------------------------------|
B|-3-3-1-0-------0--------------0--------------------------------------------|
G|---------2-0-2---2--2-0-2-0-2---2-0--0-------------------------------------|
D|------------------------------------2--------------------------------------|
A|---------------------------------------------------------------------------|
E|---------------------------------------------------------------------------|

[Outro]
e|---------------------------------------------------------------------------|
B|---1---1h3p1---------------------------------------------------------------|
G|-----2---------0---0---0h2p0-------------------2---2h4p2---0---------------|
D|-----------------2---2-------2---2-------4---------------------------------|
A|-0-----------0-----------------3---3-3/5---5-0---0-------0-----------------|
E|---------------------------------------------------------------------------|            
Submit corrections

↑ Back to top | Tablatures and chords for acoustic guitar and electric guitar, ukulele, drums are parodies/interpretations of the original songs. You may use it for private study, scholarship, research or language learning purposes only