Home » B » Babes In Toyland »

Babes In Toyland - Spit To See The Shine Tabs

Artists:  A B C D E F G H I J K L M N O P Q R S T U V W X Y Z # 

Spit To See The Shine Tabs

(ver. 1) Click to play this song!
Babes In Toyland
 Rating:
4.3/5 (10 votes)
                [Intro]
e|---------------------------------------------------------------------------|
B|---------------------------------------------------------------------------|
G|---------------------------------------------------------------------------|
D|-2------2------2------2----------------------------------------------------| x 1
A|-2------2------2------2----------------------------------------------------|
E|-0--3b--0--3b--0--3b--0--3b------------------------------------------------|

e|---------------------------------------------------------------------------|
B|---------------------------------------------------------------------------|
G|---------------------------------------------------------------------------|
D|-2-----2-2-------2-2-------------------------------------------------------| x 2
A|-2--2--2-2--2-2--2-2--2-2-2-2-2-2-2-2-2------------------------------------|
E|-0--3--0-0--3-3--0-0--3-3-3-3-3-3-3-3-3------------------------------------|

[Verse]
e|---------------------------------------------------------------------------|
B|---------------------------------------------------------------------------|
G|---------------------------------------------------------------------------|
D|-2-----2-2-------2-2-------------------------------------------------------| x 6
A|-2--2--2-2--2-2--2-2--2-2-2--2-2-2-----------------------------------------|
E|-0--3--0-0--3-3--0-0--3-3-3--3-3-3-----------------------------------------|

   Grandma´s patch stole a hen party chicken scratch 
   See how your garden grows
   Get a thread and amend us both please
   This I know
   Grandma´s girl is coming down to steal violets from your crown 
   And glue them to her wrist

[Chorus]
e|---------------------------------------------------------------------------|
B|---------------------------------------------------------------------------|
G|---------------------------------------------------------------------------|
D|---7~~---------------------------------------------------------------------| x 1
A|---7~~---------------------------------------------------------------------|
E|---5~~---------------------------------------------------------------------|

   You have to spit to see the shine

e|---------------------------------------------------------------------------|
B|---------------------------------------------------------------------------|
G|---------------------------------------------------------------------------|
D|-2-----2-2-------2-2-------------------------------------------------------| x 2
A|-2--2--2-2--2-2--2-2--2-2-2--2-2-2-----------------------------------------|
E|-0--3--0-0--3-3--0-0--3-3-3--3-3-3-----------------------------------------|

[Verse]
e|---------------------------------------------------------------------------|
B|---------------------------------------------------------------------------|
G|---------------------------------------------------------------------------|
D|-2-----2-2-------2-2-------------------------------------------------------| x 4
A|-2--2--2-2--2-2--2-2--2-2-2--2-2-2-----------------------------------------|
E|-0--3--0-0--3-3--0-0--3-3-3--3-3-3-----------------------------------------|

   Grandma´s girl is coming down to steal violets from your crown 
   And glue them to her wrist
   Hey Jack, Catholic black
   Stab ´em in the back
   Jack, you´re so serious

[Chorus]
e|---------------------------------------------------------------------------|
B|---------------------------------------------------------------------------|
G|---------------------------------------------------------------------------|
D|---7~~---------------------------------------------------------------------| x 1
A|---7~~---------------------------------------------------------------------|
E|---5~~---------------------------------------------------------------------|

   You have to spit to see the shine

e|---------------------------------------------------------------------------|
B|---------------------------------------------------------------------------|
G|---------------------------------------------------------------------------|
D|-2-----2-2-------2-2-------------------------------------------------------| x 2
A|-2--2--2-2--2-2--2-2--2-2-2--2-2-2-----------------------------------------|
E|-0--3--0-0--3-3--0-0--3-3-3--3-3-3-----------------------------------------|

[Bridge]
e|------------------------------------|--------------------------------------|
B|------------------------------------|--------------------------------------|
G|------------------------------------|--------------------------------------|
D|-2x-x-----x-x-----x-x---------------|-2-2-----2-2-----2-2------------------| x 1
A|-2x-x--2--x-x--2--x-x--2-2x--2-2-2--|-2-2--2--2-2--2--2-2--2-2-2-2---------|
E|-0--0--3--0-0--3--0-0--3-3x--3-3-3--|-0-0--3--0-0--3--0-0--3-3-3-3---------|
   
   Yeah, yeah, yeah
   Hey, hey
   Yeah, yeah
   Hey, hey

[Verse]
e|---------------------------------------------------------------------------|
B|---------------------------------------------------------------------------|
G|---------------------------------------------------------------------------|
D|-2-----2-2-------2-2-------------------------------------------------------| x 2
A|-2--2--2-2--2-2--2-2--2-2-2--2-2-2-----------------------------------------|
E|-0--3--0-0--3-3--0-0--3-3-3--3-3-3-----------------------------------------|

   Send 'em back, Jack
   You're a writer
   You better write quick cause your paper's on fire

[Chorus]
e|---------------------------------------------------------------------------|
B|---------------------------------------------------------------------------|
G|---------------------------------------------------------------------------|
D|---7~~---------------------------------------------------------------------| x 1
A|---7~~---------------------------------------------------------------------|
E|---5~~---------------------------------------------------------------------|

   You have to spit to see the shine

e|---------------------------------------------------------------------------|
B|---------------------------------------------------------------------------|
G|---------------------------------------------------------------------------|
D|-2-----2-2-------2-2-------------------------------------------------------| x 2
A|-2--2--2-2--2-2--2-2--2-2-2--2-2-2-----------------------------------------|
E|-0--3--0-0--3-3--0-0--3-3-3--3-3-3-----------------------------------------|

[Outro]
e|---------------------------------------------------------------------------|
B|---------------------------------------------------------------------------|
G|---------------------------------------------------------------------------|
D|-2-----2-2-------2-2-------------------------------------------------------| x 2
A|-2--2--2-2--2-2--2-2--2-2-2--2-2-2-----------------------------------------|
E|-0--3--0-0--3-3--0-0--3-3-3--3-3-3-----------------------------------------|            
Submit corrections

↑ Back to top | Tablatures and chords for acoustic guitar and electric guitar, ukulele, drums are parodies/interpretations of the original songs. You may use it for private study, scholarship, research or language learning purposes only