Home » A » Axel Rudi Pell »

Axel Rudi Pell - Snake Eyes Tabs

Artists:  A B C D E F G H I J K L M N O P Q R S T U V W X Y Z # 

Snake Eyes Tabs

(ver. 1) Click to play this song!
Axel Rudi Pell
SNAKE EYES

Metronome: 150bpm
Tune: 1/2 step down

Solo n' licks have not been tabbed out.
Not 100% sure the rest is completely right either...but it's not far from truth


[Riff: 1] Main

E|-------------------------------------------|
B|-------------------------------------------|
G|-------------------------------------------|
D|--9-9-12-9s7-9-9-7-9-12---9-9-12-9s7-9-9~--|
A|--7-7-10-7s5-7-7-5-7-10---7-7-10-7s5-7-7~--|
E|-------------------------------------------|

[Riff: 2] Verse

E|--------------|-------------|------|
B|--------------|-------------|------|
G|--------------|-------------|------|
D|--9---7S9p.m.-|-------------|---7--|
A|--7---5S7p.m.-|-7---5s7p.m.-|---5--|
E|--------------|-5---3s5p.m.-|-7----|

[Riff: 3] Bridge

E|------------------|
B|------------------|
G|------------------|
D|--5---7---10--12--|
A|--3---5---7---9---|
E|------------------|

[Riff: 4] Chorus
                         End chorus...
E|-------------------|-------|
B|-------------------|-------|
G|--------------5----|-------|
D|--7---3---5---5-5--|---9---|
A|--7---3---5---3-5--|---7---|
E|--5---1---3-----3--|-------|


 There's a hot new piece slippin'thru the city
 slitherin' 'round sneakin' out lookin' much too pretty
 Got her number got her thru my bedroom door
 coiled her legs around me then she wanted more

 Don't make me beg like a dog without a bone
 Come on little sweetie don't cha turn your heart to stone

 She's burnin' I'm learnin'
 She's got Snake Eyes
 She's burnin' I'm learnin'
 can't stop and won't think twice
 She's burnin' I'm learnin'
 She's got Snake Eyes
 She's burnin' I'm learnin'
 She controls the dice - Snake Eyes

 Come on snake eyes get it while it's hot
 fell the venom sting ya get every last drop
            
Submit corrections

↑ Back to top | Tablatures and chords for acoustic guitar and electric guitar, ukulele, drums are parodies/interpretations of the original songs. You may use it for private study, scholarship, research or language learning purposes only