Home » A » Axel Rudi Pell »

Axel Rudi Pell - Sea Of Evil Tabs

Artists:  A B C D E F G H I J K L M N O P Q R S T U V W X Y Z # 

Sea Of Evil Tabs

(ver. 1) Click to play this song!
Axel Rudi Pell
Axel Rudi Pell - Sea of Evil tab

I can't figure out the solo but the rest seem okay to me.

Intro/Main riff - Distortion guitar
e|--------------------|------------------------|
B|--------------------|------------------------|
G|--------------------|------------------------|   play this
D|--------4-----------|-----4------4-4---------|   two times
A|-4-6-7-----7-6-4-2--|-7-6----7-4------7-6-7\-|
D|--------------------|------------------------|


Verse 1 - No guitar
They were sailing on the ship of the damned
Straight on the ocean to an unholy land
Sirens were calling, only exist to believe
Longing for their souls, possessed by the misty morning

Bridge - Clean Guitar

  Db      Db      |Db	   B
e|----------------|----------------|
B|----------------|----------------|
G|6~------6~------|6~------4~------|
D|6~------6~------|6~------4~------|
A|4~------4~------|4~------2~------|
D|----------------|----------------|
          "...from far    away"

  Db              |	   B
e|----------------|----------------|
B|----------------|----------------|
G|6~--------------|--------4~------|
D|6~--------------|--------4~------|
A|4~--------------|--------2~------|
D|----------------|----------------|
	       "They don't want here to stay"

Main riff - Distortion guitar
e|--------------------|------------------------|
B|--------------------|------------------------|
G|--------------------|------------------------|   play this
D|--------4-----------|-----4------4-4---------|   two times
A|-4-6-7-----7-6-4-2--|-7-6----7-4------7-6-7\-|
D|--------------------|------------------------|


Verse 2 - No Guitar
Their thoughts were blinded, the tides turning high
Searching for fool's gold under the blackened sky
The sea is deep and it waits endlessly
Hungry for souls, for you and for me

Bridge - Clean Guitar

  Db      Db      |Db	   B
e|----------------|----------------|
B|----------------|----------------|
G|6~------6~------|6~------4~------|
D|6~------6~------|6~------4~------|
A|4~------4~------|4~------2~------|
D|----------------|----------------|
          "...from far    away"

  Db              |	   B
e|----------------|----------------|
B|----------------|----------------|
G|6~--------------|--------4~------|
D|6~--------------|--------4~------|
A|4~--------------|--------2~------|
D|----------------|----------------|
	       "They don't want here to stay"

Chorus - Distortion Guitar
e|----------------|----------------|
B|----------------|----------------|
G|----------------|----------------|   play this
D|6~------2~------|4~------2~------|   four times
A|6~------2~------|4~------2~------|
D|6~------2~------|4~------2~------|
..evil...		...die.
..evil...		...sky.
..evil...		...why.
..evil...		...cry.

Main riff - Distortion guitar
e|--------------------|------------------------|
B|--------------------|------------------------|
G|--------------------|------------------------|   play this
D|--------4-----------|-----4------4-4---------|   two times
A|-4-6-7-----7-6-4-2--|-7-6----7-4------7-6-7\-|
D|--------------------|------------------------|

Verse 3 - No guitar
Northern lights once shined so bright
In a wonderful heaven, now are hiding in the night
The mood turned Zero, hearing echoes in the dark
The colors of a rainbow were in need of their spark.

Bridge - Clean Guitar

  Db      Db      |Db	   B
e|----------------|----------------|
B|----------------|----------------|
G|6~------6~------|6~------4~------|
D|6~------6~------|6~------4~------|
A|4~------4~------|4~------2~------|
D|----------------|----------------|
          "...from far    away"

  Db              |	   B
e|----------------|----------------|
B|----------------|----------------|
G|6~--------------|--------4~------|
D|6~--------------|--------4~------|
A|4~--------------|--------2~------|
D|----------------|----------------|
	       "They don't want here to stay"

Chorus - Distortion Guitar
e|----------------|----------------|
B|----------------|----------------|
G|----------------|----------------|   play this
D|6~------2~------|4~------2~------|   four times
A|6~------2~------|4~------2~------|
D|6~------2~------|4~------2~------|
..evil...		...die.
..evil...		...sky.
..evil...		...why.
..evil...		...cry.

Guitar Solo

Bridge - Distortion Guitar

  Db      Db      |Db	   B
e|----------------|----------------|
B|----------------|----------------|
G|6~------6~------|6~------4~------|
D|6~------6~------|6~------4~------|
A|4~------4~------|4~------2~------|
D|----------------|----------------|
          "...from far    away"

  Db              |	   B
e|----------------|----------------|
B|----------------|----------------|
G|6~--------------|--------4~------|
D|6~--------------|--------4~------|
A|4~--------------|--------2~------|
D|----------------|----------------|
	       "They don't want here to stay"

Chorus - Distortion Guitar
e|----------------|----------------|
B|----------------|----------------|
G|----------------|----------------|   play this
D|6~------2~------|4~------2~------|   until the end
A|6~------2~------|4~------2~------|   of the song.
D|6~------2~------|4~------2~------|
..evil...		...die.
..evil...		...sky.
..evil...		...why.
..evil...		...cry.

This is my first tab, if you have any questions ask it.
            
Submit corrections

↑ Back to top | Tablatures and chords for acoustic guitar and electric guitar, ukulele, drums are parodies/interpretations of the original songs. You may use it for private study, scholarship, research or language learning purposes only