Home » A » Axel Rudi Pell »

Axel Rudi Pell - Fool Fool Tabs

Artists:  A B C D E F G H I J K L M N O P Q R S T U V W X Y Z # 

Fool Fool Tabs

(ver. 1) Click to play this song!
Axel Rudi Pell
Axel Rudi Pell – ‘Fool Fool’
                     From the Album ‘The Wizards Chosen Few’
              Copyright 2000, Steamhammer
                     Version 1.0 – June 2003


For Questions, Comments, Newest Version, or Corrections contact


.  - palm mute                  ph    - pinched harmonic
/  - slide up to                ah    - artificial harmonic
\  - slide down to              th    - tap harmonic 
~  - vibrato                    hr    - natural harmonic
h  - hammer on                  b     - bend 
p  - pull off                      Suffixes for bend    
t  - tap with finger                    f - full bend    h - half bend
"  - tremolo picking                    r - release      t - tap bend
X  - percussion mute                    p - pick when bent 
  - accented note                 Prefixes
() - ghost note, sustained note         p - pre-bend     w - use bar
*  - see comment                        d - don't pick start of bend 

Tune Gtr to D

FOOL FOOL

Riff A guitar 1
|--------------------------------------------------------------------|
|--------------------------------------------------------------------|
|-----8-8--------------8-8-------------------------------------------|
|5----8-8--3-3----5----8-8-8-8-10-10-3-3-----------------------------| 
|5----6-6--3-3----5----6-6-8-8-10-10-3-3-----------------------------|
|3---------1-1----3--------6-6-8--8--1-1-----------------------------|

Riff B, both guitars.
|--------------------------------------------------------------------|
|--------------------------------------------------------------------|
|-----8-8----------------------8-8-----------------------------------|
|5----8-8--3-3-33333333---5----8-8-8-8-10-10-3-3-3333----------------| 
|5----6-6--3-3-33333333---5----6-6-8-8-10-10-3-3-3333----------------|
|3---------1-1-11111111---3--------6-6-8--8--1-1-1111----------------|
               ........                          ....

Riff C, both guitars
|-5-----5------------------------------------------------------------|
|-4-----4------------------------------------------------------------|
|-5-----5--7--77777777-----------------------------------------------|
|-5--5--5--7--77777777-----------------------------------------------| 
|-3--5--3--5--55555555-----------------------------------------------|
|----3---------------------------------------------------------------|
              ........

Repeat this a couple of times. Then the solo comes. That one’s for you. The other riffs occasionally have slight variations. Listen to the song! Everything you need to play them is listed here.

Riff D
|--------------------------------------------------------------------|
|--------------------------------------------------------------------|
|--------------------------------------------------------------------|
|--------------------------------------------------------------------| 
|--------------------------------------------------------------------|
|--------------------------------------------------------------------|

Riff E
|--------------------------------------------------------------------|
|--------------------------------------------------------------------|
|--------------------------------------------------------------------|
|--------------------------------------------------------------------| 
|--------------------------------------------------------------------|
|--------------------------------------------------------------------|

|--------------------------------------------------------------------|
|--------------------------------------------------------------------|
|--------------------------------------------------------------------|
|--------------------------------------------------------------------| 
|--------------------------------------------------------------------|
|--------------------------------------------------------------------|

|--------------------------------------------------------------------|
|--------------------------------------------------------------------|
|--------------------------------------------------------------------|
|--------------------------------------------------------------------| 
|--------------------------------------------------------------------|
|--------------------------------------------------------------------|

|--------------------------------------------------------------------|
|--------------------------------------------------------------------|
|--------------------------------------------------------------------|
|--------------------------------------------------------------------| 
|--------------------------------------------------------------------|
|--------------------------------------------------------------------|

|--------------------------------------------------------------------|
|--------------------------------------------------------------------|
|--------------------------------------------------------------------|
|--------------------------------------------------------------------| 
|--------------------------------------------------------------------|
|--------------------------------------------------------------------|

|--------------------------------------------------------------------|
|--------------------------------------------------------------------|
|--------------------------------------------------------------------|
|--------------------------------------------------------------------| 
|--------------------------------------------------------------------|
|--------------------------------------------------------------------|

|--------------------------------------------------------------------|
|--------------------------------------------------------------------|
|--------------------------------------------------------------------|
|--------------------------------------------------------------------| 
|--------------------------------------------------------------------|
|--------------------------------------------------------------------|

|--------------------------------------------------------------------|
|--------------------------------------------------------------------|
|--------------------------------------------------------------------|
|--------------------------------------------------------------------| 
|--------------------------------------------------------------------|
|--------------------------------------------------------------------|

|--------------------------------------------------------------------|
|--------------------------------------------------------------------|
|--------------------------------------------------------------------|
|--------------------------------------------------------------------| 
|--------------------------------------------------------------------|
|--------------------------------------------------------------------|
            
Submit corrections

↑ Back to top | Tablatures and chords for acoustic guitar and electric guitar, ukulele, drums are parodies/interpretations of the original songs. You may use it for private study, scholarship, research or language learning purposes only