Home » A » Axel Rudi Pell »

Axel Rudi Pell - Edge Of The World Tabs

Artists:  A B C D E F G H I J K L M N O P Q R S T U V W X Y Z # 

Edge Of The World Tabs

(ver. 1) Click to play this song!
Axel Rudi Pell
Axel Rudi Pell – ‘Edge Of The World’
                     From the Album ‘Shadow Zone’
              Copyright 2002, Steamhammer
                     Version 1.0 – May 2003


For Questions, Comments, Newest Version, or Corrections contact

.  - palm mute                  ph    - pinched harmonic
/  - slide up to                ah    - artificial harmonic
\  - slide down to              th    - tap harmonic 
~  - vibrato                    hr    - natural harmonic
h  - hammer on                  b     - bend 
p  - pull off                      Suffixes for bend    
t  - tap with finger                    f - full bend    h - half bend
"  - tremolo picking                    r - release      t - tap bend
X  - percussion mute                    p - pick when bent 
  - accented note                 Prefixes
() - ghost note, sustained note         p - pre-bend     w - use bar
*  - see comment                        d - don't pick start of bend 

Tune Gtr to D

EDGE OF THE WORLD

Riff A guitar I
|---7----7------7----------------------------------------------------|
|---7----7------7----------------------------------------------------|
|---7--7-9----9-9--7-6-----------------------------------------------|
|-9-9--7-9----9-9--7-6--7--------------------------------------------| 
|-9-9--5-7----7-7--5-4--7--------------------------------------------|
|-7-7-------------------5--------------------------------------------|

Riff B melody over riff A
|--------------------------------------------------------------------|
|--------------6--9-8-6---6-8-6--------------------------------------|
|-8-7-5--8-7-5----------8-------8-7----------------------------------|
|--------------------------------------------------------------------| 
|--------------------------------------------------------------------|
|--------------------------------------------------------------------|

Riff C, both guitars
|-7--------------------------------------------------------3---------------------|
|-7--------------------------------------------------------3---------------------|
|-7--------------------------------------------------------3---------------------|
|-9--7--2--0--0-------5-8------8------8------8------8-8--6-5----5----5----5----5-| 
|-9--7--2--2--4--5----5-8------8------8------8------8-8--6-5-55-5-55-5-55-5-55-5-|
|-7--5--0--3--5--6----3-6-6666-6-6666-6-6666-6-6666-6-6--4-3-33-3-33-3-33-3-33-3-|
                          ....   ....   ....   ....          ..   ..   ..   ..

Riff D
|--------------------------------------------------------------------|
|--------------------------------------------------------------------|
|--------------------------------------------------------------------|
|-------------------------------3------------------------------------| 
|-------------------------------1------------------------------------|
|-2-4-55-44-2-4-4-2-4-55-44-2-4--------------------------------------|
  . . .. .. . . . . . .. .. . .

Riff A is backing for solo as well. Pell’s solos are way out of my league.
            
Submit corrections

↑ Back to top | Tablatures and chords for acoustic guitar and electric guitar, ukulele, drums are parodies/interpretations of the original songs. You may use it for private study, scholarship, research or language learning purposes only