» » »

Avril Lavigne - Falling Fast Tabs

Artists:  A B C D E F G H I J K L M N O P Q R S T U V W X Y Z # 

Falling Fast Tabs

(ver. 1) Click to play this song!
Avril Lavigne
 Rating:
4.3/5 (10 votes)

 Falling Fast lessons Tabs too difficult? Try these video lessons and learn fast
 
                CHORDS USED:
    Em7  Cadd9  G  Dsus4/F#  D  D*
e|---3-----3----3-----3------2--x----|
B|---3-----3----3-----3------3--3----|
G|---0-----0----0-----2------2--0----|
D|---2-----2----0-----0------0--4----|
A|---2-----3----x-----x---------5----|
E|---0----------3-----2--------------|


INTRO:
    1 e + a 2 e + a 3 e + a 4 e + a 1 e + a 2 e + a 3 e + a 4 e + a
e|-------------------------------------------------------------------|
B|--8-------\---5-------------------------------3--------------------|
G|--0-----------0-------------------------0-------------0------------|
D|--------------------------------------4-----4-------------4--------|
A|--------------3-------------------5--------------------------------|
E|--0----------------------------------------------------------------|

    1 e + a 2 e + a 3 e + a 4 e + a 1 e + a 2 e + a 3 e + a 4 e + a
e|-------------------------------------------------------------------|
B|--8-------\---5-------------------------------3--------------------|
G|--0-----------0-------------------------0--------------------------|
D|--------------------------------------4-----4----------------------|
A|--------------3-------------------5--------------------------------|
E|--0----------------------------------------------------------------|


VERSE 1/VERSE 2:
    1 e + a 2 e + a 3 e + a 4 e + a 1 e + a 2 e + a 3 e + a 4 e + a 
e|-------------------------------------------------------------------|
B|--3-------------------------------------0--------------------------|
G|--0-----------0-------------------------------------------0--------|
D|--------------0-------------------0h2-----------------4-------4----|
A|--3-------------------------------------------5--------------------|
E|--------------3----------------------------------------------------|

    1 e + a 2 e + a 3 e + a 4 e + a 1 e + a 2 e + a 3 e + a 4 e + a 
e|-------------------------------------------------------------------|
B|--------3-------------------------------0--------------------------|
G|------0-----0-------------------------------0-------------0--------|
D|----------------------------------0h2-----------------4-------4----|
A|--3-------------------------------------------5--------------------|
E|--------------3----------------------------------------------------|


PRE-CHORUS:
    1 e + a 2 e + a 3 e + a 4 e + a 1 e + a 2 e + a 3 e + a 4 e + a 
e|-------------------------------------------------------------------|
B|--0-------------------------------------0--------------------------|
G|--0-----------0-----------------------------0-------------0--------|
D|--------------0-------------------0h2---------------4---------4----|
A|--3-------------------------------------------5---------5----------|
E|--------------3----------------------------------------------------|

    1 e + a 2 e + a 3 e + a 4 e + a 1 e + a 2 e + a 3 e + a 4 e + a 
e|-------------------------------------------------------------------|
B|--------3-------------------------------0--------------------------|
G|------0-----0-------------------------0-----0-------------0--------|
D|----------------------------------0h2---------------4--------------|
A|--3-------------------------------------------5---------5----------|
E|--------------3----------------------------------------------------|


CHORUS:
    1 e + a 2 e + a 3 e + a 4 e + a 1 e + a 2 e + a 3 e + a 4 e + a    \
e|-------------------------------------------------------------------|  |
B|--------0-----------------3-------------0-----------------3--------|  |
G|------0-----0-------0-----------------0-----0-----------------0----|  |
D|----------------------------------------------------4--------------|  |
A|--------------3---------3---------------------5---------5----------|  |
E|--0-------------------------------3--------------------------------|  |
                                                                        | - 2x
    1 e + a 2 e + a 3 e + a 4 e + a 1 e + a 2 e + a 3 e + a 4 e + a     |
e|-------------------------------------------------------------------|  |
B|--------0-----------------0-------------------3--------------------|  |
G|------0-----0-------0-------------------0--------------------------|  |
D|--------------------------------------4-----4----------------------|  |
A|--------------3---------3---------5--------------------------------|  |
E|--0----------------------------------------------------------------|  |
                                                                       /          
    1 e + a 2 e + a 3 e + a 4 e + a 1 e + a 2 e + a 3 e + a 4 e + a      
e|-------------------------------------------------------------------|  
B|--8-------\---5-------------------------------3--------------------|
G|--0-----------0-------------------------0-------------0------------|
D|--------------------------------------4-----4-------------4--------|
A|--------------3-------------------5--------------------------------|
E|--0----------------------------------------------------------------|
                                            I'm falling fast

    1 e + a 2 e + a 3 e + a 4 e + a 1 e + a 2 e + a 3 e + a 4 e + a
e|-------------------------------------------------------------------|
B|--8-------\---5-------------------------------3--------------------|
G|--0-----------0-------------------------0--------------------------|
D|--------------------------------------4-----4----------------------|
A|--------------3-------------------5--------------------------------|
E|--0----------------------------------------------------------------|


BRIDGE:
    1 e + a 2 e + a 3 e + a 4 e + a 1 e + a 2 e + a 3 e + a 4 e + a 
e|-------------------------------------------------------------------|
B|--------0-----------------0-------------0-----------------3--------|
G|------0-----0-------0---------0-------0-----0-------2---------0----|
D|-------------------------------------------------------------------|
A|--------------3---------3------------------------------------------|
E|--0-------------------------------3-----------2---------2----------|

    1 e + a 2 e + a 3 e + a 4 e + a 1 e + a 2 e + a 3 e + a 4 e + a 
e|-------------------------------------------------------------------|
B|--------0-----------------0-------------0--------------------------|
G|------0-----0-------0---------0-------0-----0----------------------|
D|----------------------------------------------0--------------------|
A|--------------3---------3------------------------------------------|
E|--0-------------------------------3--------------------------------|

    1 e + a 2 e + a 3 e + a 4 e + a 1 e + a 2 e + a 3 e + a 4 e + a 
e|-------------------------------------------------------------------|
B|--------3-----------------3-------------3-----------------3--------|
G|------0-----0-------0---------0-------0-----0-------2---------0----|
D|-------------------------------------------------------------------|
A|--------------3---------3------------------------------------------|
E|--0-------------------------------3-----------2---------2----------|

    1 e + a 2 e + a 3 e + a 4 e + a 1 e + a 2 e + a 3 e + a 4 e + a 
e|-------------------------------------------------------------------|
B|--------3-----------------3-------------3--------------------------|
G|------0-----0-------0---------0-------0-----0-2--------------------|
D|----------------------------------------------0--------------------|
A|--------------3---------3------------------------------------------|
E|--0-------------------------------3--------------------------------|


FINAL CHORUS:
    1 e + a 2 e + a 3 e + a 4 e + a 1 e + a 2 e + a 3 e + a 4 e + a 
e|------------------------------------------------------------------|
B|--3-----------3-------------------3-----------3-------------------|
G|--0-----------0-------------------0-----------2-------------------|
D|------------------------------------------------------------------|
A|--------------3---------------------------------------------------|
E|--0-------------------------------3-----------2-------------------|

    1 e + a 2 e + a 3 e + a 4 e + a 1 e + a 2 e + a 3 e + a 4 e + a 
e|------------------------------------------------------------------|
B|--3-----------3-------------------------------3-------------------|
G|--0-----------0-------------------------0-------------------------|
D|--------------------------------------4-----4---------------------|
A|--------------3-------------------5-------------------------------|
E|--0---------------------------------------------------------------|

             Em7    Cadd9
I say "let's take a chance"
        G        Dsus4/F#
Take it while we can
  Em7      Cadd9   D* (*Don't strum chord; instead, play the arpeggio below)
I know you feel it too

    1 e + a 2 e + a 3 e + a 4 e + a 
e|-----------------------------------|
B|--------------3--------------------|
G|--------0--------------------------|
D|------4-----4----------------------|
A|--5--------------------------------|
E|-----------------------------------|
            I'm falling fast

    1 e + a 2 e + a 3 e + a 4 e + a 1 e + a 2 e + a 3 e + a 4 e + a
e|-------------------------------------------------------------------|
B|--8-------\---5-------------------------------3--------------------|
G|--0-----------0-------------------------0-------------0------------|
D|--------------------------------------4-----4-------------4--------|
A|--------------3-------------------5--------------------------------|
E|--0----------------------------------------------------------------|
                                                I'm falling fast

    1 e + a 2 e + a 3 e + a 4 e + a 1 e + a 2 e + a 3 e + a 4 e + a
e|-------------------------------------------------------------------|
B|--8-------\---5-------------------------------3--------------------|
G|--0-----------0-------------------------0--------------------------|
D|--------------------------------------4-----4----------------------|
A|--------------3-------------------5--------------------------------|
E|--0----------------------------------------------------------------|


ORDER OF THE SONG:
  Intro
  Verse 1
  Pre-chorus
  Chorus
  Verse 2
  Pre-chorus
  Chorus
  Bridge
  Final Chorus
  Intro            
Submit corrections


        Falling Fast lessons Hard to play? Try these video lessons and learn fast Falling Fast lessons
        
↑ Back to top | Tablatures and chords for acoustic guitar and electric guitar, ukulele, drums are parodies/interpretations of the original songs. You may use it for private study, scholarship, research or language learning purposes only