» » »

Avril Lavigne - Alice Underground Tabs

Artists:  A B C D E F G H I J K L M N O P Q R S T U V W X Y Z # 

Alice Underground Tabs

(ver. 1) Click to play this song!
Avril Lavigne
 Rating:
4.3/5 (18 votes)

 Alice Underground lessons Tabs too difficult? Try these video lessons and learn fast
 
                [Intro] (x4)
e|-----------------|
B|-----------------|
G|-----------------|
D|-0-0-0-0-0-0-0-0-|
A|-2-2-2-2-2-2-2-2-|
E|-3-3-3-3-3-3-3-3-|

[Verse]
e|-----------------|-----------------|-----------------|-----------------|            
B|-----------------|-----------------|-----------------|-----------------|
G|-----------------|-----------------|-----------------|-----------------|
D|-0-0-0-0-0-0-0-0-|-0-0-0-0-0-0-0-0-|-0-0-0-0-0-0-0-0-|-0-0-0-0-0-0-0-0-|   
A|-2-2-2-2-2-2-2-2-|-2-2-2-2-2-2-2-2-|-2-2-2-2-2-2-2-2-|-2-2-2-2-2-2-2-2-|
E|-3-3-3-3-3-3-3-3-|-3-3-3-3-3-3-3-3-|-3-3-3-3-3-3-3-3-|-3-3-3-3-3-3-3-3-|

e|-------|-------|            Trippin' out Spinnin' around I'm underground, 
B|-------|-------|            I fell down Yeah, I fell down
G|-------|-------|            I'm freakin' out So where am I now? Upside down
D|-3-3-3-|-3-3-3-|            And I can't stop it now It can't stop me now,
A|-3-3-3-|-3-3-3-|            Ohhh
E|-1-1-1-|-1-1-1-|

e|-----------------|-----------------|-----------------|-----------------|            
B|-----------------|-----------------|-----------------|-----------------|
G|-----------------|-----------------|-----------------|-----------------|
D|-0-0-0-0-0-0-0-0-|-0-0-0-0-0-0-0-0-|-0-0-0-0-0-0-0-0-|-0-0-0-0-0-0-0-0-|   
A|-2-2-2-2-2-2-2-2-|-2-2-2-2-2-2-2-2-|-2-2-2-2-2-2-2-2-|-2-2-2-2-2-2-2-2-|
E|-3-3-3-3-3-3-3-3-|-3-3-3-3-3-3-3-3-|-3-3-3-3-3-3-3-3-|-3-3-3-3-3-3-3-3-|

e|-----------------|-----------------|       
B|-----------------|-----------------|
G|-----------------|-----------------|
D|-0-0-0-0-0-0-0-0-|-0-0-0-0-0-0-0-0-|  
A|-2-2-2-2-2-2-2-2-|-2-2-2-2-2-2-2-2-|
E|-3-3-3-3-3-3-3-3-|-3-3-3-3-3-3-3-3-|

e|-------|---|            
B|-------|---|            
G|-------|---|            
D|-3-3-3-|-3-|            
A|-3-3-3-|-3-|           
E|-1-1-1-|-1-|            
 
[Chorus]
e|-----------------|-----------------|-----------------|-----------------|       
B|-----------------|-----------------|-----------------|-----------------|
G|-----------------|-----------------|-----------------|-----------------|
D|-0-0-0-0-0-0-0-0-|-0-0-0-0-0-0-0-0-|-3-3-3-3-3-3-3-3-|-3-3-3-3-3-3-3-3-|  
A|-2-2-2-2-2-2-2-2-|-2-2-2-2-2-2-2-2-|-3-3-3-3-3-3-3-3-|-3-3-3-3-3-3-3-3-|
E|-3-3-3-3-3-3-3-3-|-3-3-3-3-3-3-3-3-|-1-1-1-1-1-1-1-1-|-1-1-1-1-1-1-1-1-|

e|-----------------|      I, I'll get by I, I'll survive When the
B|-----------------|      world's crashin' down When I fall and hit 
G|-0-0-0-0-0-0-0-0-|      the ground I will turn myself around
D|-2-2-2-2-2-2-2-2-|      Don't you try to stop it! I, I won't cry
A|-3-3-3-3-3-3-3-3-|
E|-----------------|

e|-----------------|-----------------|-----------------|-----------------|
B|-----------------|-----------------|-----------------|-----------------|
G|-2-2-2-2-2-2-2-2-|-----------------|-----------------|-0-0-0-0-0-0-0-0-|
D|-2-2-2-2-2-2-2-2-|-0-0-0-0-0-0-0-0-|-3-3-3-3-3-3-3-3-|-2-2-2-2-2-2-2-2-| 
A|-0-0-0-0-0-0-0-0-|-2-2-2-2-2-2-2-2-|-3-3-3-3-3-3-3-3-|-3-3-3-3-3-3-3-3-|
E|-----------------|-3-3-3-3-3-3-3-3-|-1-1-1-1-1-1-1-1-|-----------------|

e|-----------------|-----------------|-----------------|-----------------|
B|-----------------|-----------------|-----------------|-----------------|
G|-2-2-2-2-2-2-2-2-|-----------------|-----------------|-0-0-0-0-0-0-0-0-|
D|-2-2-2-2-2-2-2-2-|-0-0-0-0-0-0-0-0-|-3-3-3-3-3-3-3-3-|-2-2-2-2-2-2-2-2-| 
A|-0-0-0-0-0-0-0-0-|-2-2-2-2-2-2-2-2-|-3-3-3-3-3-3-3-3-|-3-3-3-3-3-3-3-3-|
E|-----------------|-3-3-3-3-3-3-3-3-|-1-1-1-1-1-1-1-1-|-----------------|

e|-----------------|-----------------|-----------------|
B|-----------------|-----------------|-----------------|
G|-2-2-2-2-2-2-2-2-|-----------------|-0-0-0-0-0-0-0-0-|
D|-2-2-2-2-2-2-2-2-|-0-0-0-0-0-0-0-0-|-2-2-2-2-2-2-2-2-|
A|-0-0-0-0-0-0-0-0-|-2-2-2-2-2-2-2-2-|-3-3-3-3-3-3-3-3-|
E|-----------------|-3-3-3-3-3-3-3-3-|-----------------|

e|-----------------|-----------------|
B|-----------------|-----------------|
G|-2-2-2-2-2-2-2-2-|-----------------|
D|-2-2-2-2-2-2-2-2-|-0-0-0-0-0-0-0-0-|
A|-0-0-0-0-0-0-0-0-|-2-2-2-2-2-2-2-2-|
E|-----------------|-3-3-3-3-3-3-3-3-|

[Bridge] 
(All in vibrato)
 (Down)(Down)(Down)(Down)(Down)            I found myself (myself) in Wonderland
e|-1---|-1---|-0---|-0--|-3---|            Get back on my feet again
B|-3---|-3---|-1---|-1--|-3---|            Is this real? (Is this real?)
G|-2---|-2---|-2---|-0--|-0---|            Is it pretend? (Is it pretend?)
D|-0---|-0---|-2---|-2--|-0---|            I'll take (I'll take) a stand 
A|-----|-----|-0---|-3--|-2---|            (A stand) until (Until) the end
E|-----|-----|-----|----|-3---|

(Down)(Down)(Down)(Down)(Down)
e|-1---|-0---|-0--|-3---|
B|-3---|-1---|-1--|-3---|
G|-2---|-2---|-0--|-0---|
D|-0---|-2---|-2--|-0---| (x3)
A|-----|-0---|-3--|-2---|
E|-----|-----|----|-3---|

[Chorus]
e|-----------------|-----------------|-----------------|-----------------|       
B|-----------------|-----------------|-----------------|-----------------|
G|-0-0-0-0-0-0-0-0-|-2-2-2-2-2-2-2-2-|-----------------|-----------------|
D|-2-2-2-2-2-2-2-2-|-2-2-2-2-2-2-2-2-|-0-0-0-0-0-0-0-0-|-3-3-3-3-3-3-3-3-| 
A|-3-3-3-3-3-3-3-3-|-0-0-0-0-0-0-0-0-|-2-2-2-2-2-2-2-2-|-3-3-3-3-3-3-3-3-|
E|-----------------|-----------------|-3-3-3-3-3-3-3-3-|-1-1-1-1-1-1-1-1-|

e|-----------------|-----------------|-----------------|-----------------|       
B|-----------------|-----------------|-----------------|-----------------|
G|-0-0-0-0-0-0-0-0-|-2-2-2-2-2-2-2-2-|-----------------|-----------------|
D|-2-2-2-2-2-2-2-2-|-2-2-2-2-2-2-2-2-|-0-0-0-0-0-0-0-0-|-3-3-3-3-3-3-3-3-| 
A|-3-3-3-3-3-3-3-3-|-0-0-0-0-0-0-0-0-|-2-2-2-2-2-2-2-2-|-3-3-3-3-3-3-3-3-|
E|-----------------|-----------------|-3-3-3-3-3-3-3-3-|-1-1-1-1-1-1-1-1-|

e|-----------------|-----------------|-----------------|-----------------|       
B|-----------------|-----------------|-----------------|-----------------|
G|-0-0-0-0-0-0-0-0-|-2-2-2-2-2-2-2-2-|-----------------|-----------------|
D|-2-2-2-2-2-2-2-2-|-2-2-2-2-2-2-2-2-|-0-0-0-0-0-0-0-0-|-0-0-0-0-0-0-0-0-| 
A|-3-3-3-3-3-3-3-3-|-0-0-0-0-0-0-0-0-|-2-2-2-2-2-2-2-2-|-2-2-2-2-2-2-2-2-|
E|-----------------|-----------------|-3-3-3-3-3-3-3-3-|-3-3-3-3-3-3-3-3-|
 
e|-----------------|-----------------|-----------------|-1~-| 
B|-----------------|-----------------|-----------------|-3~-|       
G|-0-0-0-0-0-0-0-0-|-2-2-2-2-2-2-2-2-|-----------------|-2~-|
D|-2-2-2-2-2-2-2-2-|-2-2-2-2-2-2-2-2-|-0-0-0-0-0-0-0-0-|-0~-| 
A|-3-3-3-3-3-3-3-3-|-0-0-0-0-0-0-0-0-|-2-2-2-2-2-2-2-2-|----|
E|-----------------|-----------------|-3-3-3-3-3-3-3-3-|----|
                                                       (Down)

I, I'll get by I, I'll survive When the world's crashin' down When I fall and hit the ground
I'll just turn myself around Don't you try to stop me! I, I won't cry

e|-----------------|-----------------|-----------------|-----------------|       
B|-----------------|-----------------|-----------------|-----------------|
G|-0-0-0-0-0-0-0-0-|-2-2-2-2-2-2-2-2-|-----------------|-----------------|
D|-2-2-2-2-2-2-2-2-|-2-2-2-2-2-2-2-2-|-0-0-0-0-0-0-0-0-|-3-3-3-3-3-3-3-3-| 
A|-3-3-3-3-3-3-3-3-|-0-0-0-0-0-0-0-0-|-2-2-2-2-2-2-2-2-|-3-3-3-3-3-3-3-3-|
E|-----------------|-----------------|-3-3-3-3-3-3-3-3-|-1-1-1-1-1-1-1-1-|

e|-----------------|-----------------|-----------------|-----------------|       
B|-----------------|-----------------|-----------------|-----------------|
G|-0-0-0-0-0-0-0-0-|-2-2-2-2-2-2-2-2-|-----------------|-----------------|
D|-2-2-2-2-2-2-2-2-|-2-2-2-2-2-2-2-2-|-0-0-0-0-0-0-0-0-|-3-3-3-3-3-3-3-3-| 
A|-3-3-3-3-3-3-3-3-|-0-0-0-0-0-0-0-0-|-2-2-2-2-2-2-2-2-|-3-3-3-3-3-3-3-3-|
E|-----------------|-----------------|-3-3-3-3-3-3-3-3-|-1-1-1-1-1-1-1-1-|

e|-----------------|-----------------|-----------------|-----------------|       
B|-----------------|-----------------|-----------------|-----------------|
G|-0-0-0-0-0-0-0-0-|-2-2-2-2-2-2-2-2-|-----------------|-----------------|
D|-2-2-2-2-2-2-2-2-|-2-2-2-2-2-2-2-2-|-0-0-0-0-0-0-0-0-|-0-0-0-0-0-0-0-0-| 
A|-3-3-3-3-3-3-3-3-|-0-0-0-0-0-0-0-0-|-2-2-2-2-2-2-2-2-|-2-2-2-2-2-2-2-2-|
E|-----------------|-----------------|-3-3-3-3-3-3-3-3-|-3-3-3-3-3-3-3-3-|
 
e|-----------------|-----------------|-----------------|-1~-| 
B|-----------------|-----------------|-----------------|-3~-|       
G|-0-0-0-0-0-0-0-0-|-2-2-2-2-2-2-2-2-|-----------------|-2~-|
D|-2-2-2-2-2-2-2-2-|-2-2-2-2-2-2-2-2-|-0-0-0-0-0-0-0-0-|-0~-| 
A|-3-3-3-3-3-3-3-3-|-0-0-0-0-0-0-0-0-|-2-2-2-2-2-2-2-2-|----|
E|-----------------|-----------------|-3-3-3-3-3-3-3-3-|----|
                                                       (Down)            
Submit corrections


        Alice Underground lessons Hard to play? Try these video lessons and learn fast Alice Underground lessons
        
↑ Back to top | Tablatures and chords for acoustic guitar and electric guitar, ukulele, drums are parodies/interpretations of the original songs. You may use it for private study, scholarship, research or language learning purposes only