Home » A » Avenged Sevenfold »

Avenged Sevenfold - Danger Line Bass

Artists:  A B C D E F G H I J K L M N O P Q R S T U V W X Y Z # 

Danger Line Bass

(ver. 1) Click to play this song!
Avenged Sevenfold
Artist - Avenged Sevenfold
Album - Nightmare
Track - Danger Line
Tuning - Dropped D (DADG)

NB - (n) notes inside parentheses are optional
   - where two 'o' are used, repeat between (if repeat is more than x2, it will be 
ABOVE bar)

Intro Pt. 1
G|--------------------------------|--------------------------------|
D|--------------------------------|--------------------------------|
A|--------------------------------|--------------------------------|
D|-1------1--1--1--1------1--1--1-|-1------1--1--1--1------1-------|

G|--------------------------------|--------------------------------|
D|--------------------------------|--------------------------------|
A|--------------------------------|--------------------------------|
D|-1------1--1--1--1------1--1--1-|-1------1------1------1--1--1--1|

G|--------------------------------|--------------------------------|
D|--------------------------------|--------------------------------|
A|--------------------------------|--------------------------------|
D|-1------1--1--1--1------1--1--1-|-1------1-------1-------1--1--1-|

G|--------------------------------|--------------------------------|
D|--------------------------------|--------------------------------|
A|--------------------------------|--------------------------------|
D|-1------1--1--1--1------1--1--1-|-1------1------1------1--1--1--1|

G|--------------------------------|--------------------------------|
D|--------------------------------|--------------------------------|
A|--------------------------------|--------------------------------|
D|-1------1--1--1--1------1--1--1-|-1-------1-------1-------1------|

G|--------------------------------|--------------------------------|
D|--------------------------------|--------------------------------|
A|--------------------------------|--------------------------------|
D|-1------1--1--1--1------1--1--1-|-1------1------1------1--1--1--1|

G|--------------------------------|--------------------------------|
D|--------------------------------|--------------------------------|
A|--------------------------------|--------------------------------|
D|-1------1--1--1--1------1--1--1-|-1------1-------1-------1--1--1-|

G|--------------------------------|--------------------------------|
D|--------------------------------|--------------------------------|
A|--------------------------------|--------------------------------|
D|-1------1--1--1--1------1--1--1-|-1------------------------------|

Intro Pt. 2
G|--------------------------------|--------------------------------|
D|o-------------------------------|--------------------------------|
A|o-------------------------------|--------------------------------|
D|-0-------0-------0-------0------|-0-------0-------0-------0------|

G|--------------------------------|--------------------------------|
D|--------------------------------|--------------------------------|
A|--------------------------------|--------------------------------|
D|-6-------6-------6-------6------|-6-------6-------6-------6------|

G|--------------------------------|--------------------------------|
D|--------------------------------|--------------------------------|
A|--------------------------------|--------------------------------|
D|-5-------5-------5-------5------|-5-------5-------5-------5------|

G|--------------------------------|--------------------------------|
D|--------------------------------|-------------------------------o|
A|--------------------------------|-------------------------------o|
D|-1-------1-------1-------1------|-1-------1-------1-------1------|

G|--------------------------------|--------------------------------|
D|--------------------------------|--------------------------------|
A|--------------------------------|--------------------------------|
D|--------------------------------|--------------------------------|

Verse 1
G|--------------------------------|--------------------------------|
D|o-------------------------------|-------------------------------o|
A|o-------------------------------|-------------------------------o|
D|-0----------0----------0--0--0--|-0----------0----------0--0--0--|

G|--------------------------------|--------------------------------|
D|o-------------------------------|-------------------------------o|
A|o-------------------------------|-------------------------------o|
D|-5----------5----------5--5--5--|-5----------5----------5--5--5--|
                                 x3
G|--------------------------------|--------------------------------|
D|o------------------------------o|--------------------------------|
A|o------------------------------o|--------------------------------|
D|--0----0----3----0----0-0-0-0-0-|-0----0----3----0----0----3----0|
                                 x3
G|--------------------------------|--------------------------------|
D|o------------------------------o|--------------------------------|
A|o------------------------------o|--------------------------------|
D|--5----5----8----5----5-5-5-5-5-|-5----5----8----5----5----8----5|

G|--------------------------------|--------------------------------|
D|--------------------------------|--------------------------------|
A|--------------------------------|--------------------------------|
D|--------------------------------|--------------------------------|

Chorus
G|--------------------------------|--------------------------------|
D|--------------------------------|--------------------------------|
A|--------------------------------|--------------------------------|
D|-0---0-------0---0---0-------0--|-0---0-------0---0---0-------0--|

G|--------------------------------|--------------------------------|
D|o-------------------------------|-------------------------------o|
A|o-------------------------------|-------------------------------o|
D|-5---5-------5---5---5-------5--|-5---5-------5---5---5-------5--|

G|--------------------------------|--------------------------------|
D|o-------------------------------|-------------------------------o|
A|o-------------------------------|-------------------------------o|
D|-0---0-------0---0---0-------0--|-0---0-------0---0---0-------0--|

G|--------------------------------|--------------------------------|
D|o-------------------------------|-------------------------------o|
A|o-------------------------------|-------------------------------o|
D|-5---5-------5---5---5-------5--|-5---5-------5---5---5-------5--|

G|--------------------------------|--------------------------------|
D|--------------------------------|--------------------------------|
A|--------------------------------|--------------------------------|
D|-0---0-------0---0---0-------0--|-0---0-------0---0---0-------0--|

G|--------------------------------|--------------------------------|
D|--------------------------------|--------------------------------|
A|--------------------------------|--------------------------------|
D|-0-------0-------0-------0------|-0-------0-------0-------0------|

G|--------------------------------|--------------------------------|
D|--------------------------------|--------------------------------|
A|--------------------------------|--------------------------------|
D|-6-------6-------6-------6------|-6-------6-------6-------6------|

G|--------------------------------|--------------------------------|
D|--------------------------------|--------------------------------|
A|--------------------------------|--------------------------------|
D|-5-------5-------5-------5------|-5-------5-------5-------5------|

G|--------------------------------|--------------------------------|
D|--------------------------------|--------------------------------|
A|--------------------------------|--------------------------------|
D|-1-------1-------1-------1------|-1-------1-------1-------1------|

G|--------------------------------|--------------------------------|
D|--------------------------------|--------------------------------|
A|--------------------------------|--------------------------------|
D|--------------------------------|--------------------------------|

Verse 2
G|--------------------------------|--------------------------------|
D|o-------------------------------|-------------------------------o|
A|o-------------------------------|-------------------------------o|
D|-0----------0----------0--0--0--|-0----------0----------0--0--0--|

G|--------------------------------|--------------------------------|
D|o-------------------------------|-------------------------------o|
A|o-------------------------------|-------------------------------o|
D|-5----------5----------5--5--5--|-5----------5----------5--5--5--|
                                 x3
G|--------------------------------|--------------------------------|
D|o------------------------------o|--------------------------------|
A|o------------------------------o|--------------------------------|
D|--0----0----3----0----0-0-0-0-0-|-0----0----3----0----0----3----0|
                                 x3
G|--------------------------------|--------------------------------|
D|o------------------------------o|--------------------------------|
A|o------------------------------o|--------------------------------|
D|--5----5----8----5----5-5-5-5-5-|-5----5----8----5----5----8----5|

G|--------------------------------|--------------------------------|
D|--------------------------------|--------------------------------|
A|--------------------------------|--------------------------------|
D|--------------------------------|--------------------------------|


Chorus
G|--------------------------------|--------------------------------|
D|--------------------------------|--------------------------------|
A|--------------------------------|--------------------------------|
D|-0---0-------0---0---0-------0--|-0---0-------0---0---0-------0--|

G|--------------------------------|--------------------------------|
D|o-------------------------------|-------------------------------o|
A|o-------------------------------|-------------------------------o|
D|-5---5-------5---5---5-------5--|-5---5-------5---5---5-------5--|

G|--------------------------------|--------------------------------|
D|o-------------------------------|-------------------------------o|
A|o-------------------------------|-------------------------------o|
D|-0---0-------0---0---0-------0--|-0---0-------0---0---0-------0--|

G|--------------------------------|--------------------------------|
D|o-------------------------------|-------------------------------o|
A|o-------------------------------|-------------------------------o|
D|-5---5-------5---5---5-------5--|-5---5-------5---5---5-------5--|

G|--------------------------------|--------------------------------|
D|--------------------------------|--------------------------------|
A|--------------------------------|--------------------------------|
D|-0---0-------0---0---0-------0--|-0---0-------0---0---0-------0--|

G|--------------------------------|--------------------------------|
D|--------------------------------|--------------------------------|
A|-1---1-------1---1---1-------1--|-1---1-------1---1---1-------1--|
D|--------------------------------|--------------------------------|

G|--------------------------------|--------------------------------|
D|--------------------------------|--------------------------------|
A|--------------------------------|--------------------------------|
D|-5---5-------5---5---5-------5--|-5---5-------5---5---5-------5--|

Bridge
G|--------------------------------|--------------------------------|
D|--------------------------------|--------------------------------|
A|-1---1---1---1---1---1---1---1--|-1---1---1---1---1---1---1---1--|
D|--------------------------------|--------------------------------|

G|--------------------------------|--------------------------------|
D|--------------------------------|--------------------------------|
A|--------------------------------|--------------------------------|
D|-3---3---3---3---3---3---3---3--|-3---3---3---3---3---3---3---3--|

G|--------------------------------|--------------------------------|
D|--------------------------------|--------------------------------|
A|--------------------------------|--------------------------------|
D|-2---2---2---2---2---2---2---2--|-2---2---2---2---2---2---2---2--|

G|--------------------------------|--------------------------------|
D|--------------------------------|--------------------------------|
A|--------------------------------|--------------------------------|
D|-0---0---0---0---0---0---0---0--|-0---0---0---0---0---0---0---0--|

G|--------------------------------|--------------------------------|
D|--------------------------------|--------------------------------|
A|-1---1---1---1---1---1---1---1--|-1---1---1---1---1---1---1---1--|
D|--------------------------------|--------------------------------|

G|--------------------------------|--------------------------------|
D|--------------------------------|--------------------------------|
A|--------------------------------|--------------------------------|
D|-3---3---3---3---3---3---3---3--|-3---3---3---3---3---3---3---3--|
                                 x3
G|--------------------------------|--------------------------------|
D|o------------------------------o|-----------------0---0---1---1--|
A|o0---0---0---0---0---0---0---0-o|-1---1---3---3------------------|
D|--------------------------------|--------------------------------|

G|--------------------------------|--------------------------------|
D|--------------------------------|--------------------------------|
A|-1---1-1-1-1---1-1-1-1---1---1-1|-1---1-1-1-1---1-1-1-1---1---1-1|
D|--------------------------------|--------------------------------|

G|--------------------------------|--------------------------------|
D|--------------------------------|--------------------------------|
A|--------------------------------|--------------------------------|
D|-3---3-3-3-3---3-3-3-3---3---3-3|-3---3-3-3-3---3-3-3-3---3---3-3|

G|--------------------------------|--------------------------------|
D|--------------------------------|--------------------------------|
A|--------------------------------|--------------------------------|
D|-2---2-2-2-2---2-2-2-2---2---2-2|-2---2-2-2-2---2-2-2-2---2---2-2|

G|--------------------------------|--------------------------------|
D|--------------------------------|--------------------------------|
A|--------------------------------|--------------------------------|
D|-0---0-0-0-0---0-0-0-0---0---0-0|-0---0-0-0-0---0-0-0-0---0---0-0|

G|--------------------------------|--------------------------------|
D|--------------------------------|--------------------------------|
A|-1---1-1-1-1---1-1-1-1---1---1-1|-1---1-1-1-1---1-1-1-1---1---1-1|
D|--------------------------------|--------------------------------|

G|--------------------------------|--------------------------------|
D|--------------------------------|--------------------------------|
A|--------------------------------|--------------------------------|
D|-3---3-3-3-3---3-3-3-3---3---3-3|-3---3-3-3-3---3-3-3-3---3---3-3|

G|--------------------------------|--------------------------------|
D|--------------------------------|--------------------------------|
A|-0---0-0-0-0---0-0-0-0---0---0-0|-0---0-0-0-0---0-0-0-0---0---0-0|
D|--------------------------------|--------------------------------|

G|--------------------------------|--------------------------------|
D|--------------------------------|-0---0-0-0-0---0-0-0-0---1---1-1|
A|-1---1-1-1-1---1-1-1-1---3---3-3|--------------------------------|
D|--------------------------------|--------------------------------|
                                                                 x16
G|--------------------------------|--------------------------------|
D|o-------------------------------|-------------------------------o|
A|o-------------------------------|-------------------------------o|
D|--------------------------------|--------------------------------|

Solo
G|--------------------------------|--------------------------------|
D|--------------------------------|--------------------------------|
A|-1------------------------------|------------------------0-------|
D|--------------------------------|--------------------------------|

G|--------------------------------|--------------------------------|
D|--------------------------------|--------------------------------|
A|--------------------------------|------------------------0-------|
D|-3------------------------------|--------------------------------|

G|--------------------------------|--------------------------------|
D|--------------------------------|------------------------2-------|
A|-3------------------------------|--------------------------------|
D|--------------------------------|--------------------------------|

G|--------------------------------|--------------------------------|
D|-0------------------------------|-2----------------3------\------|
A|--------------------------------|--------------------------------|
D|--------------------------------|--------------------------------|

G|--------------------------------|--------------------------------|
D|--------------------------------|--------------------------------|
A|-1------------------------------|-1-------3--------1-------0-----|
D|--------------------------------|--------------------------------|

G|--------------------------------|--------------------------------|
D|--------------------------------|--------------------------------|
A|--------------------------------|--------------------------------|
D|-3------------------------------|------------------------5-------|

G|--------------------------------|--------------------------------|
D|--------------------------------|------------------------2-------|
A|-0------------------------------|--------------------------------|
D|--------------------------------|--------------------------------|

G|-2------------------------------|-2----------------2-------------|
D|--------------------------------|--------------------------------|
A|--------------------------------|--------------------------------|
D|--------------------------------|--------------------------------|

G|--------------------------------|--------------------------------|
D|--------------------------------|--------------------------------|
A|-1------------------------------|------------------------0-------|
D|--------------------------------|--------------------------------|

G|--------------------------------|--------------------------------|
D|--------------------------------|--------------------------------|
A|--------------------------------|------------------------0-------|
D|-3------------------------------|--------------------------------|

G|--------------------------------|--------------------------------|
D|--------------------------------|------------------------2-------|
A|-3------------------------------|--------------------------------|
D|--------------------------------|--------------------------------|

G|--------------------------------|--------------------------------|
D|-0-------0---------------0------|---------2-------3--------------|
A|--------------------------------|------------------------0-------|
D|--------------------------------|--------------------------------|

G|--------------------------------|--------------------------------|
D|--------------------------------|--------------------------------|
A|-1------------------------------|-1-------3--------1-------0-----|
D|--------------------------------|--------------------------------|

G|--------------------------------|--------------------------------|
D|--------------------------------|--------------------------------|
A|--------------------------------|--------------------------------|
D|-3------------------------------|------------------------5-------|

G|--------------------------------|--------------------------------|
D|--------------------------------|------------------------2-------|
A|-0------------------------------|--------------------------------|
D|--------------------------------|--------------------------------|

G|-2------------------------------|-2----------------2-------------|
D|--------------------------------|--------------------------------|
A|--------------------------------|--------------------------------|
D|--------------------------------|--------------------------------|

Outro                                                            x12
G|--------------------------------|--------------------------------|
D|o-------------------------------|-------------------------------o|
A|o-------------------------------|-------------------------------o|
D|--------------------------------|--------------------------------|
            
Submit corrections

↑ Back to top | Tablatures and chords for acoustic guitar and electric guitar, ukulele, drums are parodies/interpretations of the original songs. You may use it for private study, scholarship, research or language learning purposes only