» » »

Avantasia - Unchain The Light Tabs

Artists:  A B C D E F G H I J K L M N O P Q R S T U V W X Y Z # 

Unchain The Light Tabs

(ver. 1) Click to play this song!
Avantasia
 Rating:
4.3/5 (27 votes)

 Unchain The Light  lessons Tabs too difficult? Try these video lessons and learn fast
 
                Tuning: Standard E A D G B e

Intro:                                           
e|------------------------2----2----------------|
B|--1-----1---------------3----3-----1----1-----|
G|.-0-----0---------------2----2-----2----2----.|
D|.-2-----2-----2----2----0----0-----2----2----.|
A|--3-----3-----2----2----0----0-----0----0-----|
E|--------------0----0--------------------------|

Riff:
e|--15-14----12-----|--15-14----12-----|--15-14----12-----|--15-14----12-----|
B|--------15----13--|--------15----12--|--------15--------|--------15----12--|
G|.----------------.|.----------------.|.-------------14-.|.----------------.|
D|.----------------.|.----------------.|.----------------.|.----------------.|
A|------------------|------------------|------------------|------------------|
E|------------------|------------------|------------------|------------------|

VERSE:
Who's got the answer    Is this what I'm looking for   And who do I talk to  What do I have to explore
e|---------------------------------------------------------------------------------------------------|
B|-3---------------3-----------------5------------5-------------5----------5-------7----------7------|
G|---5---------------5-----------------7------------7---------5----------5-----------9----------9----|
D|-----5---------------5-----------------7------------7-----7----------7---------------9----------9--|
A|---------------------------------------------------------------------------------------------------|
E|---------------------------------------------------------------------------------------------------|

Attend to your god given duty  You'll be taking your heaven by force   How could you choose
e|---------------------------------------------------------------------------------------------------|
B|--3----------------3--------------------------5---------------5-------------------------------3----|
G|----5----------------5--------------------------7---------------7-------------------------2---2----|
D|------5----------------5--------------------------7---------------7-----------------------2---0----|
A|------------------------------------------------------------------------------------------0--------|
E|---------------------------------------------------------------------------------------------------|

With your head in the noose          With no time to lose
e|------------------------------------------------------2-----2-2-2-2-2------|
B|--3------------------7------3------1------------------3-----3-3-3-3-3------|
G|----5------------------9----2------0------------------2-----2-2-2-2-2------|
D|------5------------------9--0------2------------------0-----0-0-0-0-0------|
A|-----------------------------------3---------------------------------------|
E|---------------------------------------------------------------------------|

CHORUS:
   High up in the open skies   We'll chain the light  We'll take the time from those it does to death
e|---------------------------|-------------------------------------------------------------------------|
B|---------------------------|-------------------------------------------------------------------------|
G|---------8------3----------|-------------------8---------------------3-------------------------------|
D|--5------8------3----3-----|--5----------------8---------------------3--------------------------3----|
A|--5------6------1----3-----|--5----------------6---------------------1--------------------------3----|
E|--3------------------1-----|--3-----------------------------------------------------------------1----|

   High up in the open skies   We'll chain the light We'll take the time from those it does to death and
e|---------------------------|-------------------------------------------------------------------------|
B|---------------------------|-------------------------------------------------------------------------|
G|---------8------3----------|-------------------8----------------------3------------------------------|
D|--5------8------3----3-----|--5----------------8----------------------3--------------------------3---|
A|--5------6------1----3-----|--5----------------6----------------------1--------------------------3---|
E|--3------------------1-----|--3------------------------------------------------------------------1---|

   I'll chain the light  I'll bring it right down to illuminate unholy ways, we'll chain the light
e|-------------------------------------------------------------------------------------------------|
B|-------------------------------------------------------------------------------------------------|
G|-----------------8-------------------3----------------------------8--8--8------------------------|
D|--5--------------8-------------------3-----------------3----------8--8--8---3--3--3--------------|
A|--5--------------6-------------------1-----------------3----------6--6--6---3--3--3--------------|
E|--3----------------------------------------------------1--------------------1--1--1--------------|

Riff
Verse
Chorus

Bridge:
  You look above   to see inside yourself   and find time standing still You see the world in different light 
e|----------------------------------------------------------------|-----------------------------------------|
B|-----------------------------------------------9----------------|-----------------------------------------|
G|-5-------7-----------------9-----------------------7------------|5----------------7--------------9--------|
D|-5-------7-----------------9----------------------------10---9--|5----------------7--------------9--------|
A|-3-------5-----------------7------------------------------------|3----------------5--------------7-------2|
E|---------------------------0------------------------------------|--------------------------------0--5-3-5-|
 
  You turn this moment    into what you think it's ought to be  Demystify the dark
e|------------------------------------------------------------------------------------------|
B|------------------------------------------------------------------------------------------|
G|-5------------7-------------------------------------------------5--------------7----------|
D|-5------------7--------------2-------------------4--------------5--------------7----------|
A|-3------------5--------------0-------------------2--------------3--------------5----------|
E|------------------------------------------------------------------------------------------|

Solo Background: |:Am F Gm / Am F Gm FFF:|:E C D Am / E C D CCC:|

Solo Ending:
e|-----------------12~--12~--12~-------17~---17~---17~-------24~----24~--24~-|
B|--10~--10~--10~------------------------------------------------------------|
G|---------------------------------------------------------------------------|
D|---------------------------------------------------------------------------|
A|---------------------------------------------------------------------------|
E|---------------------------------------------------------------------------|

Chorus
            
Submit corrections


        Unchain The Light  lessons Hard to play? Try these video lessons and learn fast Unchain The Light  lessons
        
↑ Back to top | Tablatures and chords for acoustic guitar and electric guitar, ukulele, drums are parodies/interpretations of the original songs. You may use it for private study, scholarship, research or language learning purposes only