» » »

Audio Adrenaline - People Like Me Chords

Artists:  A B C D E F G H I J K L M N O P Q R S T U V W X Y Z # 

People Like Me Chords

(ver. 1) Click to play this song!
Audio Adrenaline
 Rating:
4.3/5 (9 votes)


 People Like Me lessons Tabs too difficult? Try these video lessons and learn fast
 
                [Intro]
C5  D5

[Verse 1]
D5      G5                  C5
I could tell you a story of shame
        D5                G5
I could talk for hours on how we became
                         C5
A flower that bloomed in one day.
    D5                 G5
The next day our glory faded away.
                  C5
Divided by hostilities,
D5                 G5
Hung up on issues, we disagree.
                   G/B       C5
A body that's been torn apart.
D5                        G5
We're still a body with a healthy heart.

[Chorus]
G5          Em7              Cadd9
People like me, persons like you.
           Dsus2         G5
We want to be, closer to God.
          B7
Closer to free.
C       Dsus2         C5  D5
All you people like me.

[Verse 2]
G5                         C5
What do you think when you see
D5                    G5
Continuous losers the people like me?
                 C5
I hope you never believe
D5                       G5
Just for a moment you're better than me.
                             C5
The truth is that we are the same.
D5                       G5
All different people but only one name.
                G/B  C5
I hope that you will agree
D5                  G5
That all of you are people like me.

[Chorus]
G5          Em7              Cadd9
People like me, persons like you.
           Dsus2         G5
We want to be, closer to God.
          B7
Closer to free.
C       Dsus2         C5  D5
All you people like me.

[Interlude]
G5  Dsus2  Em  C

[Bridge]
G5      Dsus2      Em      C
I can't stand by myself anymore.
G5   Dsus2          Em       C
I forgot what we're fighting for.
Em          C
Please come take my hand
Em     C
We can make our stand
Em       C
Feels so good to be,
Em    Dsus4
Be so free.  Yeah.

[Solo]

   G5                 Em7              Cadd9
e|-3----------------|-3----3-----3---|-3-----3-----3-----3-|
B|-3h5--3~(3)\-x--x-|-3h5--3--x--3h5-|----3----------------|
G|------------------|----------------|----------5-----4----|
D|------------------|----------------|---------------------|
A|------------------|----------------|---------------------|
E|------------------|----------------|---------------------|

   Dsus2                    G5                      B7
e|------------------------|----------------------|---------------------|
B|----3-----3-----3-------|-----x----------8--7b-|-(7)/----------------|
G|-2-----4-----5-----4--4-|-(4)---------7--------|----------12------14-|
D|------------------------|--------0/9-----------|------14------13-----|
A|------------------------|----------------------|---------------------|
E|------------------------|----------------------|---------------------|

   C             Dsus2
e|------------|------------------------|
B|------------|-13--13--13--12--12-----|
G|-14b-----14b|-----15b-----14b-----14b|
D|-----14-----|------------------------|
A|------------|------------------------|
E|------------|------------------------|

[Chorus]
G5          Em7              Cadd9
People like me, persons like you.
           Dsus2         G5
We want to be, closer to God.
          B7
Closer to free.
C       Dsus2         C5  D5  G/B  C
All you people like me.

[Outro]
    G5
The truth is that we are the same.
G5
All dif'rent people, but only one name.
G5                   G5/C
I hope that you will agree
G5/D                G5
That all of you are people like me.            
Submit corrections



        People Like Me lessons Hard to play? Try these video lessons and learn fast People Like Me lessons
        
↑ Back to top | Tablatures and chords for acoustic guitar and electric guitar, ukulele, drums are parodies/interpretations of the original songs. You may use it for private study, scholarship, research or language learning purposes only