Home » A » Atif Aslam »

Atif Aslam - Doorie Tabs

Artists:  A B C D E F G H I J K L M N O P Q R S T U V W X Y Z # 

Doorie Tabs

(ver. 1) Click to play this song!
Atif Aslam
By Hamza

B|-------------------------|
G|-------------------------|
D|-------11-12-14-12-11-12-|
A|-12-14-------------------|
E|-------------------------|

e|-------------------------|
B|-------------------------|
G|----13-14-13----13-14-16-|
D|-14----------14----------|
A|-------------------------|
E|-------------------------|

e|----------------------|
B|----------------------|
G|-16b18-18r16\14-16-14-|
D|----------------------|
A|----------------------|
E|----------------------|

e|----------------------------------|
B|----------------------------------|
G|----13-14-16-16b18r16-16\14-16-14-|
D|-14-------------------------------|
A|----------------------------------|
E|----------------------------------|

e|----------------------------------|
B|----------------------------------|
G|----13-14-16-16b18-18r16\14-16-14-|
D|-14-------------------------------|
A|----------------------------------|
E|----------------------------------|

e|-------------------------|
B|----12-14-15-14-15-14-12-|
G|-14----------------------|
D|-------------------------|
A|-------------------------|
E|-------------------------|

e|----------------------------------|
B|----------------------------------|
G|----13-14-16-16b18r16-16\14-16-14-|
D|-14-------------------------------|
A|----------------------------------|
E|----------------------------------|

e|-------------------------------------|
B|-------------------19----------------|
G|----13-14-16-16b18----18r16\14-16-14-|
D|-14----------------------------------|
A|-------------------------------------|
E|-------------------------------------|

e|----------------------------------|
B|----------------------------------|
G|----13-14-16-16b18-18r16\14-16-14-|
D|-14-------------------------------|
A|----------------------------------|
E|----------------------------------|

e|-------------------------------|
B|----12-14-14/15-14-15-14-15/17-|
G|-14----------------------------|
D|-------------------------------|
A|-------------------------------|
E|-------------------------------|
            
Submit corrections

↑ Back to top | Tablatures and chords for acoustic guitar and electric guitar, ukulele, drums are parodies/interpretations of the original songs. You may use it for private study, scholarship, research or language learning purposes only