Home » A » Ashlee Simpson »

Ashlee Simpson - In Another Life Tabs

Artists:  A B C D E F G H I J K L M N O P Q R S T U V W X Y Z # 

In Another Life Tabs

(ver. 1) Click to play this song!
Ashlee Simpson
(Intro)
i PROMiSE YOU that this tab iS 100% CORRECT

E------3-----3-------3------|
A---------------------------|
D-4-4----4-4----4-4-----4-4-|
G-2-2----2-2----2-2-----2-2-|
B---------------------------|
E---------------------------|

E---------------------------|
A-0-----0-----0----0--------|
D---------------------------|
G---2-----2----2----2-------|
B---2-----2----2----2-------|
E---------------------------|

and even better if you just repeat this a couple more times you have the entire first 
the scond verse AND the outro

ill have some more tabs from the i am me cd later
comment please
            
Submit corrections

↑ Back to top | Tablatures and chords for acoustic guitar and electric guitar, ukulele, drums are parodies/interpretations of the original songs. You may use it for private study, scholarship, research or language learning purposes only