Home » A » Ascend The Hill »

Ascend The Hill - Be Thou My Vision Chorus Tabs

Artists:  A B C D E F G H I J K L M N O P Q R S T U V W X Y Z # 

Be Thou My Vision Chorus Tabs

(ver. 1) Click to play this song!
Ascend The Hill
Tuning:
   God be my         everything,     be my        delight,
      G                  Am            F              G
e|---------------------------------------------------------------------------------------|
B|---------------------------------------------------------------------------------------|
G|-----0-----0-------2-----2---------2----2----------0----0------------------------------|
D|---0--0---0-0-----2-2---2-2-------3-3--3--3-------0-0--0-0-----------------------------|
A|-----------------0-----0---------------------------------------------------------------|
E|--3------3-----------------------1----1----------3----3--------------------------------|

  be Jesus,    My glory       my soul      satisfied
    G            Am              F           G
e|-------------------------------------------------------------------------------------|
B|-------------------------------------------------------------------------------------|
G|---0----0-------2----2--------2----2------0----0-------------------------------------|
D|--0-0--0-0-----2-2--2-2------3-3--3-3----0-0--0-0------------------------------------|
A|--------------0----0-----------------------------------------------------------------|
E|-3----3---------------------1----1------3----3---------------------------------------|            
Submit corrections

↑ Back to top | Tablatures and chords for acoustic guitar and electric guitar, ukulele, drums are parodies/interpretations of the original songs. You may use it for private study, scholarship, research or language learning purposes only