» » »

Articolo 31 - Tranqi Funky Bass

Artists:  A B C D E F G H I J K L M N O P Q R S T U V W X Y Z # 

Tranqi Funky Bass

(ver. 1) Click to play this song!
Articolo 31
 Rating:
4/5 (4 votes)
                Intro/Rit.
G------------3----|-----------------|-----------------|---7--7-5-7-7--|
D-3-5--5-3-5---5--|------------1----|------------3----|---------------|
A-----------------|-2-3--3-2-3---3--|-3-5--5-3-5---5--|-5-------------|
E-----------------|-----------------|-----------------|---------------|

Main Riff
G--------------|--------------|--------------|----------------|
D--------------|--------------|--------------|----------------|
A-2h3----2-3-3-|-4h5----4-5-5-|--------------|------3-2-1-1---|
E------3-------|------5-------|-0h3--0-0-3-3-|-0h1------------|
            
Submit corrections

↑ Back to top | Tablatures and chords for acoustic guitar and electric guitar, ukulele, drums are parodies/interpretations of the original songs. You may use it for private study, scholarship, research or language learning purposes only