Home » A » A R Rahman »

A R Rahman - Jo Bhi Main Tabs

Artists:  A B C D E F G H I J K L M N O P Q R S T U V W X Y Z # 

Jo Bhi Main Tabs

(ver. 1) Click to play this song!
A R Rahman
Tuning: STANDARD-EADGBE

e|------0--------------------|------0--------------------|
B|------------3--------------|------------3--------------|
G|---------------------------|---------------------------|  X REPEAT AS MANY TIMES AS NEEDED
D|---------5-----4h5h7p4-----|---------5-----4h5h7p4-----|
A|------------------------5--|------------------------5--|
E|-0-0-----------------------|-0-0-----------------------|

A SLIGHT VARIATION COMES IN BETWEEN-


e|------0--------------------|------0--------------------|
B|------------3--------------|------------3--------------|
G|----------------------4----|----------------------4----| 
D|---------5-----4h5h7----4--|---------5-----4h5h7----4--|
A|---------------------------|---------------------------|
E|-0-0-----------------------|-0-0-----------------------|            
Submit corrections

↑ Back to top | Tablatures and chords for acoustic guitar and electric guitar, ukulele, drums are parodies/interpretations of the original songs. You may use it for private study, scholarship, research or language learning purposes only