Home » A » A R Rahman »

A R Rahman - Enga Pona Raasa Tabs

Artists:  A B C D E F G H I J K L M N O P Q R S T U V W X Y Z # 

Enga Pona Raasa Tabs

(ver. 1) Click to play this song!
A R Rahman
[Intro]
          Dsus2                
e|-----------0-----------0-----------------------------------------------------|
B|-----------3-----------3-----------------------------------------------------|
G|--------2----------2---------------------------------------------------------|
D|-----0----------0------------------------------------------------------------|
A|-----------------------------------------------------------------------------|
E|-----------------------------------------------------------------------------|

[Verse]
e|-----------0-----------0-----------0---------0---------0-----------------------|
B|-----------3-----------3-----------3---------3---------3-----------------------|
G|--------2----------2-----------2---------2----------2--------------------------|
D|-----0----------0-----------0---------0----------0-----------------------------|
A|-------------------------------------------------------------------------------|
E|-------------------------------------------------------------------------------|

e|----------0---5----------0--------5-------------0---------5---------0--------5---------0--------5--|
B|----------3---3----------3----------------------3-------------------3------------------3-----------|
G|-------2---------------2--------2------------2---------2---------2--------2---------2--------2-----|    x3
D|---0----------------0---------0------------3---------3---------------------------------------------|
A|---------------------------------------------------------------3--------3--------------------------|
E|---------------------------------------------------------------------------------3--------3--------|

[Bridge]
Am     Dm      Am 
kaalam enakkul uraiyuthu
F        G        F
kanneer kadalodu kalakkuthu
Am       Dm      Am
un mugam un udal theduthu
F    G         C
yeno yenakenna kedithu            
Submit corrections

↑ Back to top | Tablatures and chords for acoustic guitar and electric guitar, ukulele, drums are parodies/interpretations of the original songs. You may use it for private study, scholarship, research or language learning purposes only