Home » A » Armin Van Buuren »

Armin Van Buuren - Imagine Tabs

Artists:  A B C D E F G H I J K L M N O P Q R S T U V W X Y Z # 

Imagine Tabs

(ver. 1) Click to play this song!
Armin Van Buuren
Tuning: Standard

First guitar part, starting at 1:45:

e|---------------------------------------------------------15----------------|
B|--11-----11---8---10----11---8---10----11---8---10--15---------------------|
G|---------------------------------------------------------------------------|
D|---------------------------------------------------------------------------|
A|---------------------------------------------------------------------------|
E|---------------------------------------------------------------------------|

Second and longer guitar part, starting at 6:32:

e|---------------------------------------------------------15----------------|
B|--11-----11---8---10----11---8---10----11---8---10--15---------------------|
G|---------------------------------------------------------------------------|
D|---------------------------------------------------------------------------|
A|---------------------------------------------------------------------------|
E|---------------------------------------------------------------------------|

e|--15--------13-----15--------15-----15---17---18-----18---15---17----------|
B|-------15---------------15------------------------------------------15-----|
G|---------------------------------------------------------------------------|
D|---------------------------------------------------------------------------|
A|---------------------------------------------------------------------------|
E|---------------------------------------------------------------------------|

            
Submit corrections

↑ Back to top | Tablatures and chords for acoustic guitar and electric guitar, ukulele, drums are parodies/interpretations of the original songs. You may use it for private study, scholarship, research or language learning purposes only