» » »

Armin Van Buuren - Beautiful Life Tabs

Artists:  A B C D E F G H I J K L M N O P Q R S T U V W X Y Z # 

Beautiful Life Tabs

(ver. 1) Click to play this song!
Armin Van Buuren
 Rating:
2.4/5 (29 votes)

 Beautiful Life  lessons Tabs too difficult? Try these video lessons and learn fast
 
                VERSE 1


Bass (0:27):

G|---------------|
D|---------------|
A|---------------|
D|----1/6--------|

Guitar 1(0:30-1:52):

e|------------11--13-13--------x-13p11---------|
B|o--------13------------13-13----------------o|
G|---------------------------------------------|
D|---------------------------------------------|
A|o-------------------------------------------o|
E|---------------------------------------------|

Bass (0:30-1:52):

G|--------------------------------------------|
D|o------------------------------------------o|
A|o------------------------------------------o|
D|----3---6---10-8-10\----3~------10-8-10\----|

Guitar 2 (1:37-1:52):

e|---------------------------------------------------------------------------|
B|----------------------------8-9-8------------------------------------------|
G|----10--10-10-10-10--10-10--------8---10-10b11br10-10-10-10-10--10-11------|
D|---------------------------------------------------------------------------|
A|---------------------------------------------------------------------------|
E|---------------------------------------------------------------------------|

e|---------------------------------------------------------------------------|
B|--------------------------------------8-9-8--------------------------------|
G|--7-8-10-8-7---10--10-10-10-10--10-10-------8---10-10b11br10-10-10-10------|
D|---------------------------------------------------------------------------|
A|---------------------------------------------------------------------------|
E|---------------------------------------------------------------------------|

e|------------------|
B|------------------|
G|--10--10h11~------|
D|------------------|
A|------------------|
E|------------------|


VERSE 1 PART 2


Guitar 2 (1:52-2:07):

e|---------------------------------------------------------------------|
B|o--------------------------------------------------------------------|
G|----10-10b11br10-10-10--10--10---10-10b11br10-10--10-10-10-10--------|
D|---------------------------------------------------------------------|
A|o--------------------------------------------------------------------|
E|---------------------------------------------------------------------|

e|---------------------------------------------------------------------|
B|--------------------------------------------------------------------o|
G|----10-10b11br10-10-10--10--10---10-10b11br10-10--10-10-10-10h11~----|  
D|---------------------------------------------------------------------|
A|--------------------------------------------------------------------o|
E|---------------------------------------------------------------------|
      x2, fade out second time through.

Bass (2:07-2:22):

G|---------------------------------------------------------------------------|
D|---------------------------------------------------------------------------|
A|---------------------------------------------------------------------------|
D|----3~--2~--0~--1~-----3~--2~--6~--7~--------------------------------------|


PRECHORUS


Guitar 1 (2:22-2:37):

e|------------8---------------------------------8-8--11-10-11-10-8--8--8-----|
B|-------9-11------------------------------9-11------------------------------|
G|----10--------8-8-8-7-8-7-5--5--5-----10-----------------------------------|
D|---------------------------------------------------------------------------|
A|---------------------------------------------------------------------------|
E|---------------------------------------------------------------------------|
  P.M.....................................................................

Guitars 1 & 2 (2:37-2:52):

e|------------8---------------------------------8-8--11-10-11-10-8--8--8-----|
B|-------9-11------------------------------9-11------------------------------|
G|----10--------8-8-8-7-8-7-5--5--5-----10-----------------------------------|
D|---------------------------------------------------------------------------|
A|---------------------------------------------------------------------------|
E|---------------------------------------------------------------------------|

Guitars 1 & 2 (2:52-3:07):

e|----8-8-8-8----|
B|o-------------o|
G|---------------|
D|---------------|   
A|o-------------o|
E|---------------|

Bass (2:52-3:07):

G|----------------|
D|----------------|
A|----------------|
D|--1/////////24--|


CHORUS 1


Guitars 1 & 2 (3:07-3:37):

e|------------8-------------------------------8-8--11-10-11-10-8--8--8-------|
B|-------9-11----------------------------9-11--------------------------------|
G|----10--------8-8-8-7-8-7-5--5\-----10-------------------------------------|
D|---------------------------------------------------------------------------|
A|---------------------------------------------------------------------------|
E|---------------------------------------------------------------------------|

e|----8---------8-------------------------------8-8--11-10-11-10-8--8--------|
B|o--------9-11----------------------------9-11-----------------------------o|
G|------10--------8-8-8-7-8-7-5--5\-----10-----------------------------------|
D|---------------------------------------------------------------------------|
A|o-------------------------------------------------------------------------o|
E|---------------------------------------------------------------------------|
     x3

Bass (3:07-3:37):

G|--------------------------------------------|
D|o------------------------------------------o|
A|o------------------------------------------o|
D|----3---6---10-8-10\----3~------10-8-10\----|



VERSE 2


Guitar 1 (3:37-3:52):

e|------------11--13-13--------x-13p11---------|
B|o--------13------------13-13----------------o|
G|---------------------------------------------|
D|---------------------------------------------|
A|o-------------------------------------------o|
E|---------------------------------------------|

Guitar 2 (3:37-3:52):

e|---------------------------------------------------------------------------|
B|----------------------------8-9-8------------------------------------------|
G|----10--10-10-10-10--10-10--------8---10-10b11br10-10-10-10-10--10-11------|
D|---------------------------------------------------------------------------|
A|---------------------------------------------------------------------------|
E|---------------------------------------------------------------------------|

e|---------------------------------------------------------------------------|
B|--------------------------------------8-9-8--------------------------------|
G|--7-8-10-8-7---10--10-10-10-10--10-10-------8---10-10b11br10-10-10-10------|
D|---------------------------------------------------------------------------|
A|---------------------------------------------------------------------------|
E|---------------------------------------------------------------------------|

e|------------------|
B|------------------|
G|--10--10h11~------|
D|------------------|
A|------------------|
E|------------------|

Bass (3:37-3:52):

G|--------------------------------------------|
D|o------------------------------------------o|
A|o------------------------------------------o|
D|----3---6---10-8-10\----3~------10-8-10\----|


VERSE 2 PART 2


Guitar 1 (3:52-4:37):

e|------------8-------------------------------8-8--11-10-11-10-8--8\---------|
B|-------9-11----------------------------9-11--------------------------------|
G|----10--------8-8-8-7-8-7-5--5\-----10-------------------------------------|
D|---------------------------------------------------------------------------|
A|---------------------------------------------------------------------------|
E|---------------------------------------------------------------------------|
  P.M.....................................................................

e|----8---------8-------------------------------8-8--11-10-11-10-8--8\-------|
B|---------9-11----------------------------9-11------------------------------|
G|------10--------8-8-8-7-8-7-5--5\-----10-----------------------------------|
D|---------------------------------------------------------------------------|
A|---------------------------------------------------------------------------|
E|---------------------------------------------------------------------------|
  P.M.....................................................................

e|--(8)--------8---------------------------------8-8--11-10-11-10-8--8--8(\)-|
B|o-------9-11------------------------------9-11----------------------------o|
G|-----10--------8-8-8-7-8-7-5--5--5-----10----------------------------------|
D|---------------------------------------------------------------------------|
A|o-------------------------------------------------------------------------o|
E|---------------------------------------------------------------------------|
  P.M.....................................................................

Guitars 1 & 2 (4:37-4:52):

e|------------8---------------------------------8-8--11-10-11-10-8--8\-------|
B|-------9-11------------------------------9-11------------------------------|
G|----10--------8-8-8-7-8-7-5--5\-------10-----------------------------------|
D|---------------------------------------------------------------------------|
A|---------------------------------------------------------------------------|
E|---------------------------------------------------------------------------|

e|----8---------8---------------------------------8-8--11p10~\---------------|
B|---------9-11------------------------------9-11----------------------------|
G|------10--------8-8-8-7-8-7-5--5\-------10---------------------------------|
D|---------------------------------------------------------------------------|
A|---------------------------------------------------------------------------|
E|---------------------------------------------------------------------------|

Bass (4:24-4:52)

G|--------------------------------------------|
D|o------------------------------------------o|
A|o------------------------------------------o|
D|----3---6---10-8-10\----3~------10-8-10\----|


CHORUS 2


Same as chorus 1, but be sure to omit the slides in the first part of the chorus.


OUTRO


Guitar 1 (5:22-6:09):

e|------------11--13-13--------x-13p11---------|
B|o--------13------------13-13----------------o|
G|---------------------------------------------|
D|---------------------------------------------|
A|o-------------------------------------------o|
E|---------------------------------------------|

Guitar 2 (5:22-5:37):

e|---------------------------------------------------------------------------|
B|---------------------------------------------------------------------------|
G|----10--10-10-10-10-------------10--10-10-10-10-------------10h11~---------|
D|---------------------------------------------------------------------------|
A|---------------------------------------------------------------------------|
E|---------------------------------------------------------------------------|

Bass (5:22-5:37):

G|--------------------------------------------|
D|o------------------------------------------o|
A|o------------------------------------------o|
D|----3---6---10-8-10\----3~------10-8-10\----|

Bass (5:37-6:09):

G|--------------------------------------------|
D|o------------------------------------------o|
A|o------------------------------------------o|
D|----3~------3~-------3~--------3~-----------| 
   x2            
Submit corrections


        Beautiful Life  lessons Hard to play? Try these video lessons and learn fast Beautiful Life  lessons
        
↑ Back to top | Tablatures and chords for acoustic guitar and electric guitar, ukulele, drums are parodies/interpretations of the original songs. You may use it for private study, scholarship, research or language learning purposes only