» » »

Arijit Singh - Agar Tum Saath Ho Tabs

Artists:  A B C D E F G H I J K L M N O P Q R S T U V W X Y Z # 

Agar Tum Saath Ho Tabs

(ver. 1) Click to play this song!
Arijit Singh
 Rating:
4.3/5 (6 votes)

 Agar Tum Saath Ho  lessons Tabs too difficult? Try these video lessons and learn fast
 
                [Intro]
e|-8-7-5---3-1-0---0-1---0--|--0-0-1-5-3-1-0---------------|
B|-------5-------3-----3----|----------------3-5-----------|
G|--------------------------|------------------------------|
D|--------------------------|------------------------------|
A|--------------------------|------------------------------|
E|--------------------------|------------------------------|

e|-8-7-5---3-3-1-0---0-1---0|--0-0-1-5-3-1-0---------------|
B|-------5---------3-----3--|------------------3-1---------|
G|--------------------------|------------------------------|
D|--------------------------|------------------------------|
A|--------------------------|------------------------------|
E|--------------------------|------------------------------|            
Submit corrections


        Agar Tum Saath Ho  lessons Hard to play? Try these video lessons and learn fast Agar Tum Saath Ho  lessons
        
↑ Back to top | Tablatures and chords for acoustic guitar and electric guitar, ukulele, drums are parodies/interpretations of the original songs. You may use it for private study, scholarship, research or language learning purposes only