» » »

Ariel Rivera - Minsan Lang Kitang Iibigin Tabs

Artists:  A B C D E F G H I J K L M N O P Q R S T U V W X Y Z # 

Minsan Lang Kitang Iibigin Tabs

(ver. 1) Click to play this song!
Ariel Rivera
 Rating:
2.5/5 (30 votes)

 Minsan Lang Kitang Iibigin lessons Tabs too difficult? Try these video lessons and learn fast
 
                E|--------------------------------------|
B|--------------1--0--1--0--1-----------|
G|-----0-----0-----------------0-----0--|
D|--2-----2-----------------------0-----|
A|-----3-----------------------2--------|
E|--------------------------------------|
   C                Em
 Mahal, pangako sa iyo


E|----------------------------|
B|----1--0--1--0--1-----------|
G|-------------------2-----2--|
D|----------------------2-----|
A|-------------------0--------|
E|----------------------------|
              Am
 Hindi magbabago


E|--------------0--0--------------|
B|--1--0--1--3-----------1--------|
G|--------------------2-----------|
D|-----------------3-----------3--|
A|--------------------------3-----|
E|-----------------------1--------|
                 FM7   Fm
 Ikaw lang ang iibigin ko


E|--------------------------------------|
B|--------------1--0--1--0--1-----------|
G|-----0-----0-----------------0-----0--|
D|--2-----2-----------------------0-----|
A|-----3-----------------------2--------|
E|--------------------------------------|
    C               Em
 Kahit Ikaw ay lumayo


E|----------------------------|
B|----1--0--1--0--1-----------|
G|-------------------2-----2--|
D|----------------------2-----|
A|-------------------0--------|
E|----------------------------|
              Am
 At masaktan ako


E|--------------0--0--------1-----------------3--|
B|--1--0--1--3-----------1-----3-----------3-----|
G|--------------------2-----------------4--------|
D|-----------------3-----------------5-----------|
A|--------------------------------5--------------|
E|-----------------------------3-----------------|
                  FM7  G
 Asahan na 'di maglalaho


E|--3--3--3--3--3--1--0-----------0--|
B|-----------------------3--3--1--1--|
G|--------------------------------2--|
D|--------------------------------2--|
A|--------------------------0-----0--|
E|--0--------------------------------|
 Em                          Am
 Ang pag-ibig ko'y tanging sa'yo lamang


E|-----0--1--1--1--1--3/5--3--1--0-----------------3--|
B|--3-----1-------------------------3-----------3-----|
G|--------2----------------------------------4--------|
D|--------0-------------------------------5-----------|
A|-------------------------------------5--------------|
E|----------------------------------3-----------------|
        Dm7                      G
 Kung kaya giliw dapat mong malaman.


E|--0--1--3--------3--3--------3--3--------------|
B|--------------------------1--------1-----------|
G|--------------------------------------2--------|
D|--------------2--------2--------0--------------|
A|-----------2--------0-----------------------2--|
E|--------0--------------------------------3-----|
         Em    Am     Dm7   G
 Minsan lang kitang iibigin


E|--0--1--3--------3--3-----------3--1-----------------3--|
B|--------------------------1--1-----------1-----------0--|
G|--------------------------------------2-----2--------0--|
D|--------------2--------2-----------0-----------------0--|
A|-----------2--------0-----------------------------2-----|
E|--------0--------------------------------------3--------|
         Em     Am        Dm7 G
 Minsan lang kitang mamahalin


E|--0--1--3--3--3--3--3--0--------------0--|
B|--------------------------3--1-----1--1--|
G|--------------------------------2-----2--|
D|--------2-----------------------------2--|
A|--------2-----------------0--------------|
E|--------0--------------------------------|
        Em          E      Am
 Ang pagmamahal sa'yo'y walang hangganan


E|-----0--1--0--------1--0--------------------0--|
B|--3-----------3--1--------3--1--1--------1--1--|
G|--------------------------------------0-----0--|
D|--------0--------------------------2--------2--|
A|--------------------------------3-----------3--|
E|--------------------3--------------------------|
      Dm7             G         C
Dahil ang minsan, ay magpakailanman.


(follow tabs of first verse)
Minsan lamang sa buhay ko
Ang 'sang katulad mo
Ako rin ba'y iniibig mo
Dinggin puso'y sumasamo
Sinusumpa sa'yo
Ikaw ang tanging dalangin ko.

E|--2--3--5--------5--5--------5--5--3--------------0--|
B|--------------------------3-----------5-----------2--|
G|-----------------------------------------4--------2--|
D|--------------4--------4-----------------------2-----|
A|-----------4--------2-----------------------0--------|
E|--------2-----------------------0--------------------|
        F#m    Bm     Em   A
 Minsan lang kitang iibigin


E|--2--3--5--------5--5-----------5--3-----------------|
B|--------------------------3--3--------5-----------2--|
G|-----------------------------------------4--------2--|
D|--------------4--------4-----------------------2--2--|
A|-----------4--------2-----------------------0--------|
E|--------2--------------------------0-----------------|
         F#m   Bm          Em A
 Minsan lang kitang mamahalin

E|----2--3--5--5--5--5--5--2--------------2--|
B|----------------------------5--3-----3--3--|
G|----------------------------------4-----4--|
D|----------------------------------------4--|
A|----------------------------2-----------2--|
E|----------2--------------------------------|
         F#m        F#     Bm
 Ang pagmamahal sa'yo'y walang hangganan


E|-----2--3--2--------3--2--0-----------------2--|
B|--5-----5-----5--3-----------3--3-----3-----3--|
G|--------4--------------------------2-----2--2--|
D|--------------------------------0-----------0--|
A|--------------------0--------------------------|
E|--------0--------------------------------------|
        Em             A          D
 Dahil ang minsan, ay magpakailanman.            
Submit corrections


        Minsan Lang Kitang Iibigin lessons Hard to play? Try these video lessons and learn fast Minsan Lang Kitang Iibigin lessons
        
↑ Back to top | Tablatures and chords for acoustic guitar and electric guitar, ukulele, drums are parodies/interpretations of the original songs. You may use it for private study, scholarship, research or language learning purposes only