Home » A » Archive »

Archive - Fuck You Bass

Artists:  A B C D E F G H I J K L M N O P Q R S T U V W X Y Z # 

Fuck You Bass

(ver. 1) Click to play this song!
Archive
 Rating:
4/5 (4 votes)
                -------------------------------------------------------------------------------
-------------------------------------------------------------------------------


Tuning: Standard

Chorus:
|------------------------|
|------------------------|
|------------------------|
|--1--1-------1--1-------|
  
-------------------------|------------------------|-------------------------|
-------------------------|------------------------|-------------------------|
-------------------------|------------------------|-------------------------|
--1--1-------1--1--3--1--|--5--5-------5--5-------|--5--5-------5--5--3-----|
    
------------------------|-------------------------|------------------------|
------------------------|-------------------------|------------------------|
------------------------|-------------------------|------------------------|
--1--1-------1--1-------|--1--1-------1--1--3--1--|--5--5-------5--5-------|
 
-------------------------|------------------------|-------------------------|
-------------------------|------------------------|-------------------------|
-------------------------|------------------------|-------------------------|
--5--5-------5--5--3-----|--1--1-------1--1-------|--1--1-------1--1--3--1--|

------------------------|-------------------------|------------------------|
------------------------|-------------------------|------------------------|
------------------------|-------------------------|------------------------|
--5--5-------5--5-------|--5--5-------5--5--3-----|--1--1-------1--1-------|
                  
-------------------------|------------------------|------------------------|
-------------------------|------------------------|------------------------|
-------------------------|------------------------|------------------------|
--1--1-------1--1--3--1--|--3--3-------3--3-------|--3--3-------3--3-------|

little one after chorus:                                                             
-------|-------------|
-------|-------------|
-------|-------------|
-------|------18--17-|

2nd chorus:    (several times – pause when needed)
------------------------|-------------------------|------------------------|
------------------------|-------------------------|------------------------|
------------------------|-------------------------|------------------------|
--1--1-------1--1-------|--1--1-------1--1--3--1--|--5--5-------5--5-------|
  
--------------------------|------------------------|-------------------------|
--------------------------|------------------------|-------------------------|
--------------------------|------------------------|-------------------------|
--5--5-------5\-17--15/1--|--1--1-------1--1-------|--1--1-------1--1--3--1--|
   
------------------------|--------------------------|------------------------|
------------------------|--------------------------|------------------------|
------------------------|--------------------------|------------------------|
--5--5-------5--5-------|--5--5-------5\-17--15/1--|--1--1-------1--1-------|
   
-------------------------|------------------------|--------------------------|
-------------------------|------------------------|--------------------------|
-------------------------|------------------------|--------------------------|
--1--1-------1--1--3--1--|--5--5-------5--5-------|--5--5-------5\-17--15/1--|
     
------------------------|-------------------------|------------------------|
------------------------|-------------------------|------------------------|
------------------------|-------------------------|------------------------|
--1--1-------1--1-------|--1--1-------1--1--3--1--|--3--3-------3--3-------|
  
--------------------------|
--------------------------|
--------------------------|
--3--3-------3\-17--15/1--|


| /  slide up
| \  slide down
| h  hammer-on
| p  pull-off
| ~  vibrato
| +  harmonic
| x  Mute note
===============================================================================
            
Submit corrections

↑ Back to top | Tablatures and chords for acoustic guitar and electric guitar, ukulele, drums are parodies/interpretations of the original songs. You may use it for private study, scholarship, research or language learning purposes only