» » »

April Wine - Wanna Rock Bass

Artists:  A B C D E F G H I J K L M N O P Q R S T U V W X Y Z # 

Wanna Rock Bass

(ver. 1) Click to play this song!
April Wine
 Rating:
4/5 (4 votes)

 Wanna Rock lessons Tabs too difficult? Try these video lessons and learn fast
 
                
Tuning:  standard [listen and read words for beat]
    Intro
G|---------------------------------------------------------------------------|
D|---------------------------------------------------------------------------|
A|------------------5--------------------------------------------------------|
E|-33333333333333------------------------------------------------------------|
  verse 1
G|---------------------------------------------2-332-------------------------|
D|---------------------------------------2--5--------5-2---------------------|
A|-----------------------33333333333333------------------33333333333334555555|
E|-33333333333333333333------------------------------------------------------|
  go on home             all i wana do is rock n roll
G|---------------------------------------------------------------------------|
D|---------------------------------------------------------------------------|
A|------------------------5--------------------------------------------------|
E|333333333333333333333------------------------------------------------------|
  wana rock 4x
G|-----------------------------------2-332-----------------------------------|
D|-------------------------------2-5-------5-2-------------------------------|
A|-----------------33333333333-----------------33333333333333334555555555----|
E|-33333333333333------------------------------------------------------------|
   dont waste my    all i wana do is rock n roll
G|---------------------------------------------------------------------------|
D|---------------------------------------------------------------------------|
A|-----------------------5---------------------------------------------------|
E|33333333333333333333-------------------------------------------------------|
  wana rock 5x
G|---------------------------------------------------------------------------|
D|---------------------------------------------------------------------------|
A|--33333333333--------------33333333-------------555555555---33333333-------|
E|---------------3333333333-----------333333333------------------------333333|
  Lead
G|---------------------------------------------------------------------------|
D|---------------------------------------------------------------------------|
A|----------------333333333333333333333333333333333334555555555555-----------|
E|33333333333333---------------------------------------------------333333333-|
  turn up the music     all i wana do is rock n roll
G|---------------------------------------------------------------------------|
D|---------------------------------------------------------------------------|
A|---------------------------------------------------------------------------|
E|33333333333333-------------------------------------------------------------|
  wana rock   5x
G|---------------------------------------------------------------------------|
D|---------------------------------------------------------------------------|
A|---------------------------------------------------------------------------|
E|---------------------------------------------------------------------------|


| /  slide up
| \  slide down
| h  hammer-on
| p  pull-off
| ~  vibrato
| +  harmonic
| x  Mute note
            
Submit corrections


        Wanna Rock lessons Hard to play? Try these video lessons and learn fast Wanna Rock lessons
        
↑ Back to top | Tablatures and chords for acoustic guitar and electric guitar, ukulele, drums are parodies/interpretations of the original songs. You may use it for private study, scholarship, research or language learning purposes only