» » »

April Wine - Say Hello Tabs

Artists:  A B C D E F G H I J K L M N O P Q R S T U V W X Y Z # 

Say Hello Tabs

(ver. 1) Click to play this song!
April Wine
 Rating:
4.3/5 (6 votes)

 Say Hello lessons Tabs too difficult? Try these video lessons and learn fast
 
                -----------------------------------------------------------------------------
-----------------------------------------------------------------------------



Notes:

-Timing: most of the song is alternating measures of 2/4 and 4/4 time 
 (I've included the timing with the first staff of the Intro to demonstrate)
-the only exceptions to this are the four measures immediately preceding
 Verses 2 & 3, which is 3 measures of 4/4 and 1 measure of 3/4 (this is 
 noted above that staff in the tab)

INTRO:
(palm mute)

 E ---------|-----------------|
 B -5-x-7-x-|-8-8-8-7-x-5-5-x-|
 G -6-x-7-x-|-7-7-7-7-x-6-6-x-|  Play
 D ---------|-----------------|   4x
 A ---------|-----------------|
 E ---------|-----------------|
    1 + 2 +   1 + 2 + 3 + 4 +


1ST VERSE:
(palm mute)

 E ---------|-----------------|---------|-----------------|
 B -5-x-7-x-|-8-8-8-7-x-5-5-x-|-5-x-7-x-|-8-8-8-7-x-5-5-x-|  Play
 G -6-x-7-x-|-7-7-7-7-x-6-6-x-|-6-x-7-x-|-7-7-7-7-x-6-6-x-|   4x
 D ---------|-----------------|---------|-----------------|   
 A ---------|-----------------|---------|-----------------| (w/ lyrics
 E ---------|-----------------|---------|-----------------|   below)
1. Won't go   livin' in the past                       But
2. I be   -   lieve that love can last
3. That you'd always remain
4. Af - ter   all, we're still the same


CHORUS:
Gt1-clean, palm muted
Gt2-light distortion

Gt1
 E|---------|-----------------|       |---------|-----------------|
 B|-5-x-7-x-|-8-8-8-7-x-5-5-x-|       |-5-x-7-x-|-8-8-8-7-x-5-5-x-|
 G|-6-x-7-x-|-7-7-7-7-x-6-6-x-|       |-6-x-7-x-|-7-7-7-7-x-6-6-x-|
 D|---------|-----------------|       |---------|-----------------|
 A|---------|-----------------|       |---------|-----------------|
 E|---------|-----------------|       |---------|-----------------|
  |(pm)                       |       |                           |
  |                           |
        
Submit corrections


        Say Hello lessons Hard to play? Try these video lessons and learn fast Say Hello lessons
        
↑ Back to top | Tablatures and chords for acoustic guitar and electric guitar, ukulele, drums are parodies/interpretations of the original songs. You may use it for private study, scholarship, research or language learning purposes only