Home » A » Antony And The Johnsons »

Antony And The Johnsons - Bird Gerhl Tabs

Artists:  A B C D E F G H I J K L M N O P Q R S T U V W X Y Z # 

Bird Gerhl Tabs

(ver. 1) Click to play this song!
Antony And The Johnsons
    ___________________________
   / Antony and the Johnsons  /  What a finale for an album!
  / Bird Gerhl               /
 / I Am a Bird Now          /
/__________________________/


 The round:
Key: C# major
This 8-bar round is repeated almost all the way through the song.
This is only what the guitar plays, so just pay attention to the chords.

  C#maj9            %                 F#                %
|-----------------|-----------------|-----------------|(9--8------------|
|-----------------|-----------------|-----------------|-------9)--------|
|-----5-----------|-----------------|-----3-----------|-----------------|
|---3-------------|-----------------|-----------------|-----------------|
|-4-----4---------|-----------------|---4-------------|-----------------|
|-----------------|-----------------|-2-----2---------|-----------------|

  D#m7              G#7               A#m               F#
|-----------------|-----------------|---------8-9-8---|-----------------|
|-----------------|-----------------|------(11------9-|-9-11)-----------|
|-----6-----------|-----5-----------|-----6-----------|-----3-----------|
|---4-------------|-----------------|-----------------|-----------------|
|-6-----6---------|---6-------------|---8-------------|---4-------------|
|-----------------|-4-----4---------|-6-----6---------|-2-----2---------|


The round is played 1 time for the intro, then 5 times for the song.
When Antony sings "And the bird girls can fly", finish the round and play
the last two bars, |A#m|F#|, 2 times more. Then move on to the outro...



 Outro:
The piano part translated okay to guitar, so here's a little guitar
arrangement of the ending part. Pianists, don't mind the tabs.

  C#                F#6               D#sus2  G#6 
|-----------------|---------------2-|-1-----------4---|
|-6-------6--4----|-4----------2--2-|-4-------6-------|
|-6---6---6-----6-|-3-3-3-3-3--3--3-|-3---3---5-------|
|-6-6-----6-------|-4-------4--4----|-1---------------|
|-4-----4---------|-----------------|---------6-------|
|-----------------|-2---------------|---------4-------|

  A#m      A+5 C#/G#   Gø      F#maj7   Fm7                C#
|--------------------|-------:-1------:----11---11-11-11-:-----4---:
|-2---2-2-2-2----2---|-2-----:-2------:---13-------------:----6----:
|-3---3-3-3-2----1---|-0-----:-3------:--13--------------:---6-----:
|-3---3-3-3-3----3---|-3-----:-4------:-15---------------:--6------:
|-1---1-1-1-0--------|-------:--------:------------------:-4-------:
|----------------4---|-3-----:--------:------------------:---------:



 LYRICS
**********
I am a bird girl
I am a bird girl
I am a bird girl
I am a bird girl now

I've got my heart here in my hands
I've got my heart here in my hands now

I've been searching for my wings
I've been searching for my wings some time

I'm gonna be born
I'm gonna be born into soon the sky
I'm gonna be born into soon the sky

'Cause I'm a bird girl
And the bird girls go to heaven
I'm a bird girl
And the bird girls can fly
Bird girls can fly
Bird girls can fly
Bird girls can fly


+--------------------------------------------------------------------------+
Jon Sebastian Frederiksen - 4th /June /10
            
Submit corrections

↑ Back to top | Tablatures and chords for acoustic guitar and electric guitar, ukulele, drums are parodies/interpretations of the original songs. You may use it for private study, scholarship, research or language learning purposes only