» » »

Anti-Flag - Post-War Breakout Bass

Artists:  A B C D E F G H I J K L M N O P Q R S T U V W X Y Z # 

Post-War Breakout Bass

(ver. 1) Click to play this song!
Anti-Flag
 Rating:
4.3/5 (13 votes)

 Post-War Breakout lessons Tabs too difficult? Try these video lessons and learn fast
 
                
[Intro]
F#|---------------------------------------------------------|
C#|--------------------2----2-4----2-4------------2----2----|
G#|-------------2--2-4----4------4---------2--2-4----4------|
D#|-2\7----2\/-------------------------2-5---------------2/-|

F#|------------------------------------------------------------------------------------------------|
C#|-------------------------------------------------------2--2-2-2-2-4-2---4-2---4-2---4-2---4-2---|
G#|-----2--2-2-2-2-----------------------------2--2-2-2-2----------------4-----4-----4-----4-----4-|
D#|-2\/------------0--0-0-0-0-2--2-2-2-2-2-2-5-----------------------------------------------------|

F#|-----------------------------------------|
C#|-----------------------------------------| X2
G#|--2--2-2-2-2-----------------------------|
D#|-------------0--0-0-0-0-2--2-2-2-2-2-2-5-|

[Verse]
F#|-------------------------------------------------|
C#|--------2----2-4----2-4------------2----2--------|
G#|-2--2-4----4------4---------2--2-4----4----------|
D#|------------------------2-5---------------2--2-5-|

F#|--------------------------2h4p2---------------------------|
C#|--------2----2-4----2-4---------4---------2----2----------|
G#|-2--2-4----4------4-----4----------2--2-4----4------------|
D#|-------------------------------------------------2--2-2-5-|

[Pre-Chorus]
F#|---------------------------------------|
C#|-----------------------4-5-4-5-4-5-4-5-|
G#|---------------------------------------|
D#|-3~----2~----0-2-3~--------------------|

[Chorus]
F#|--------------------------------------------------------------------------------------------|
C#|---------------------------------------------------2--2-2-2-2-4-2---4-2---4-2---4-2---4-2---|
G#|-2--2-2-2-2-----------------------------2--2-2-2-2----------------4-----4-----4-----4-----4-|
D#|------------0--0-0-0-0-2--2-2-2-2-2-2-5-----------------------------------------------------|

F#|-----------------------------------------|
C#|-----------------------------------------| X2
G#|--2--2-2-2-2-----------------------------|
D#|-------------0--0-0-0-0-2--2-2-2-2-2-2-5-|

[Verse]
F#|------------------------------------------|
C#|------------------------------------------|
G#|-2~---------2-x-2~------2-x-2~------2-x-2-|
D#|------------------------------------------|

[Pre-Chorus]
F#|----------------------------------------------------------|
C#|------------------------------------------4-5-4-5-4-5-4-5-|
G#|----------------------------------------------------------|
D#|-10\3~----2~----0-2-3~----2-3-2-3-2-3-2-3-----------------|

[Chorus]
F#|--------------------------------------------------------------------------------------------|
C#|---------------------------------------------------2--2-2-2-2-4-2---4-2---4-2---4-2---4-2---|
G#|-2--2-2-2-2-----------------------------2--2-2-2-2----------------4-----4-----4-----4-----4-|
D#|------------0--0-0-0-0-2--2-2-2-2-2-2-5-----------------------------------------------------|

F#|-----------------------------------------|
C#|-----------------------------------------| X2
G#|--2--2-2-2-2-----------------------------|
D#|-------------0--0-0-0-0-2--2-2-2-2-2-2-5-|

[Guitar Solo]
F#|--------------------------------------------------------------------------------------------|
C#|---------------------------------------------------2--2-2-2-2-4-2---4-2---4-2---4-2---4-2---|
G#|-2--2-2-2-2-----------------------------2--2-2-2-2----------------4-----4-----4-----4-----4-|
D#|------------0--0-0-0-0-2--2-2-2-2-2-2-5-----------------------------------------------------|

F#|-----------------------------------------|
C#|-----------------------------------------| X6
G#|--2--2-2-2-2-----------------------------|
D#|-------------0--0-0-0-0-2--2-2-2-2-2-2-5-|

[Outro]
F#|-----------------------------------------------16/-|
C#|-----------------------------------------------16/-|
G#|-2~---------2-x-2~------2-x-2~------2-x-2\14~--14/-|
D#|---------------------------------------------------|            
Submit corrections


        Post-War Breakout lessons Hard to play? Try these video lessons and learn fast Post-War Breakout lessons
        
↑ Back to top | Tablatures and chords for acoustic guitar and electric guitar, ukulele, drums are parodies/interpretations of the original songs. You may use it for private study, scholarship, research or language learning purposes only