Home » A » Anssi Kela »

Anssi Kela - Milla Tabs

Artists:  A B C D E F G H I J K L M N O P Q R S T U V W X Y Z # 

Milla Tabs

(ver. 1) Click to play this song!
Anssi Kela
Anssi Kela is one of the hottest names in the finnish music industry right now! 

This song called "Milla" is Anssi Kela's newest song.("Milla" is a quite co
mmon finnish female name).


Layout:
Intro
Verse 1: 4x 
Chorus
Intro B
Verse 2: 4x
Chorus: 2x
Intro B: 2x


-----0--------|------0--------|------0-----0--------|------0--------|------0--------|
-0------0-----|---------0-----|--------0-3---3-0----|---------0-----|---------0-----|
-0------------|---------------|---------------------|---------------|---------------|
-2--------0h2-|-2/4-------0h4-|-------------------2-|-0h2-------0h2-|-2/4-------0h4-|
-3------------|-3/5-5---------|-0h2-----------------|-0h3-----------|-3/5-5---------|
--------------|---------------|-----0---------------|---------------|---------------|
 Intro A:                                                                     

------0---3-2-0------|-0-------|-----2---|-0-------|---------|-0-------|-----2---|-2-
--------0-------0----|-0-------|-----3---|-0-------|---------|-0-------|-----3---|-0-
---------------------|-0-------|-----2---|-0-------|---------|-0-------|-----2---|-2-
-------------------2-|-2-------|-----0---|-2-------|---------|-2-------|-----0---|-1-
-0h2-----------------|-3-------|---------|-2-------|---------|-3-------|---------|-2-
-----0---------------|---------|---------|-0-------|---------|---------|---------|---
                     Intro B:                                                 

-------|---------|--------------------------------------------------------------
-------|---------|--------------------------------------------------------------
-------|---------|--------------------------------------------------------------
-------|---------|--------------------------------------------------------------
-------|---------|--------------------------------------------------------------
-------|---------|--------------------------------------------------------------
                                                                              

---------------|-0-00-000-|-0-00-000-|-0-00-000-|-0-00-000-|-3-33-333-|-3-33-333-|---
---------------|-1-11-111-|-1-11-111-|-0-00-000-|-0-00-000-|-0-00-000-|-0-00-000-|---
---------------|-2-22-222-|-2-22-222-|-0-00-000-|-0-00-000-|-0-00-000-|-0-00-000-|---
---------------|-2-22-222-|-2-22-222-|-2-22-222-|-2-22-222-|-0-00-000-|-0-00-000-|---
---------------|-0-00-000-|-0-00-000-|-2-22-222-|-2-22-222-|-2-22-222-|-2-22-222-|---
---------------|----------|----------|-0-00-000-|-0-00-000-|-3-33-333-|-3-33-333-|---
 Verse Chords :    Am        Am           Em         Em         G          G        

-2-22-222-|-2-22-222-|----------------------------------------------------------
-3-33-333-|-3-33-333-|----------------------------------------------------------
-2-22-222-|-2-22-222-|----------------------------------------------------------
-0-00-000-|-0-00-000-|----------------------------------------------------------
----------|----------|----------------------------------------------------------
----------|----------|----------------------------------------------------------
     D         D                                                               

--------------|-0-00-000-|-0-00-000-|-3-33-333-|-3-33-333-|-2-22-222-|-2-22-222|---
--------------|-1-11-111-|-1-11-111-|-0-00-000-|-0-00-000-|-3-33-333-|-3-33-333|---
--------------|-0-00-000-|-0-00-000-|-0-00-000-|-0-00-000-|-2-22-222-|-2-22-222|---
--------------|-2-22-222-|-2-22-222-|-0-00-000-|-0-00-000-|-0-00-000-|-0-00-000|---
--------------|-3-33-333-|-3-33-333-|-2-22-222-|-2-22-222-|----------|---------|---
--------------|----------|----------|-3-33-333-|-3-33-333-|----------|---------|---
 Chorus Chords:    C           C         G          G          D          D        

-0-00-000-|-0-00-000-|-2-22-222-|-2-22-222-|--------------------------------------
-0-00-000-|-0-00-000-|-0-00-000-|-0-00-000-|--------------------------------------
-0-00-000-|-0-00-000-|-2-22-222-|-2-22-222-|--------------------------------------
-2-22-222-|-2-22-222-|-1-11-111-|-1-11-111-|--------------------------------------
-2-22-222-|-2-22-222-|-2-22-222-|-2-22-222-|--------------------------------------
-0-00-000-|-0-00-000-|----------|----------|--------------------------------------
    Em         Em     B7 instead of Em the 2nd time
            
Submit corrections

↑ Back to top | Tablatures and chords for acoustic guitar and electric guitar, ukulele, drums are parodies/interpretations of the original songs. You may use it for private study, scholarship, research or language learning purposes only