Home » A » Anna Nalick »

Anna Nalick - Stone Tabs

Artists:  A B C D E F G H I J K L M N O P Q R S T U V W X Y Z # 

Stone Tabs

(ver. 1) Click to play this song!
Anna Nalick
[Verse]
When she knew | they had  | lost each other
e|---------------------------------------------------------------------------|
B|---------------------------------------------------------------------------|
G|---------------------------------------------------------------------------|
D|--0-0-0----------0-0---------0-0-0-----------------------------------------|
A|-2-2-2---------4-5---------5-5-5-------------------------------------------|
E|---------------------------------------------------------------------------|
 
She came | back to LA  | And she f**ked his brother
e|---------------------------------------------------------------------------|
B|---------------------------------------------------------------------------|
G|---------------------------------------------------------------------------|
D|---0--0----0-0----------0-0-0-0--------------------------------------------|
A|-10-10----9-9---------10-9-7-5---------------------------------------------|
E|---------------------------------------------------------------------------|
 
Now she's one more in the running for deciphering his tongue
Like that hieroglyphic battle by Champollion and Young
e|---------------------------------------------------------------------------|
B|---------------------------------------------------------------------------|
G|---------------------------------------------------------------------------|
D|--0-0-0----------0-0---------0-0-0-----------------------------------------|
A|-2-2-2---------4-5---------5-5-5-------------------------------------------|
E|---------------------------------------------------------------------------|
 
e|---------------------------------------------------------------------------|
B|---------------------------------------------------------------------------|
G|---------------------------------------------------------------------------|
D|---0--0----0-0----------0-0-0-0--------------------------------------------|
A|-10-10----9-9---------10-9-7-5---------------------------------------------|
E|---------------------------------------------------------------------------|
 
[Refrain]
But he's a stone, whoa
Whoa
e|---------------------------------------------------------------------------|
B|---------------------------------------------------------------------------|
G|---------------------------------------------------------------------------|
D|--0-0-0----------0-0---------0-0-0-----------------------------------------|
A|-2-2-2---------4-5---------5-5-5-------------------------------------------|
E|---------------------------------------------------------------------------|
 
e|---------------------------------------------------------------------------|
B|---------------------------------------------------------------------------|
G|---------------------------------------------------------------------------|
D|---0--0----0-0----------0-0-0-0--------------------------------------------|
A|-10-10----9-9---------10-9-7-5---------------------------------------------|
E|---------------------------------------------------------------------------|
 
He's a stone
Whoa
e|---------------------------------------------------------------------------|
B|---------------------------------------------------------------------------|
G|---------------------------------------------------------------------------|
D|--0-0-0----------0-0---------0-0-0-----------------------------------------|
A|-2-2-2---------4-5---------5-5-5-------------------------------------------|
E|---------------------------------------------------------------------------|
 
e|---------------------------------------------------------------------------|
B|---------------------------------------------------------------------------|
G|---------------------------------------------------------------------------|
D|---0--0----0-0----------0-0-0-0--------------------------------------------|
A|-10-10----9-9---------10-9-7-5---------------------------------------------|
E|---------------------------------------------------------------------------|
 
[Verse]
I am cryptic as the ages
Been writing riddles since I first put ink to pages
e|---------------------------------------------------------------------------|
B|---------------------------------------------------------------------------|
G|---------------------------------------------------------------------------|
D|--0-0-0----------0-0---------0-0-0-----------------------------------------|
A|-2-2-2---------4-5---------5-5-5-------------------------------------------|
E|---------------------------------------------------------------------------|
 
e|---------------------------------------------------------------------------|
B|---------------------------------------------------------------------------|
G|---------------------------------------------------------------------------|
D|---0--0----0-0----------0-0-0-0--------------------------------------------|
A|-10-10----9-9---------10-9-7-5---------------------------------------------|
E|---------------------------------------------------------------------------|
 
But I know that love is music if we play with open hands
And my love won't need to read the score, he'll see and understand
e|---------------------------------------------------------------------------|
B|---------------------------------------------------------------------------|
G|---------------------------------------------------------------------------|
D|--0-0-0----------0-0---------0-0-0-----------------------------------------|
A|-2-2-2---------4-5---------5-5-5-------------------------------------------|
E|---------------------------------------------------------------------------|
 
e|---------------------------------------------------------------------------|
B|---------------------------------------------------------------------------|
G|---------------------------------------------------------------------------|
D|---0--0----0-0----------0-0-0-0--------------------------------------------|
A|-10-10----9-9---------10-9-7-5---------------------------------------------|
E|---------------------------------------------------------------------------|
 
 
[Refrain]
That I'm a stone, whoa
Whoa
e|---------------------------------------------------------------------------|
B|---------------------------------------------------------------------------|
G|---------------------------------------------------------------------------|
D|--0-0-0----------0-0---------0-0-0-----------------------------------------|
A|-2-2-2---------4-5---------5-5-5-------------------------------------------|
E|---------------------------------------------------------------------------|
 
e|---------------------------------------------------------------------------|
B|---------------------------------------------------------------------------|
G|---------------------------------------------------------------------------|
D|---0--0----0-0----------0-0-0-0--------------------------------------------|
A|-10-10----9-9---------10-9-7-5---------------------------------------------|
E|---------------------------------------------------------------------------|
 
I'm a stone
Whoa
e|---------------------------------------------------------------------------|
B|---------------------------------------------------------------------------|
G|---------------------------------------------------------------------------|
D|--0-0-0----------0-0---------0-0-0-----------------------------------------|
A|-2-2-2---------4-5---------5-5-5-------------------------------------------|
E|---------------------------------------------------------------------------|
 
e|---------------------------------------------------------------------------|
B|---------------------------------------------------------------------------|
G|---------------------------------------------------------------------------|
D|---0--0----0-0----------0-0-0-0--------------------------------------------|
A|-10-10----9-9---------10-9-7-5---------------------------------------------|
E|---------------------------------------------------------------------------|
 
[Chorus]
We're a stone's | throw      | away from    | our own language,
e|-----------------------------------------------------------------------|
B|-----------------------------------------------------------------------|
G|--0-0-0-0--------6-6-6-6------2-2-2-2---------9-9-9-9------------------|
D|-2-2-2-2--------7-7-7-7------0-0-0-0----------7-7-7-7------------------|
A|-----------------------------------------------------------------------|
E|-----------------------------------------------------------------------|
 
 And if I wasn't the | Victorian type | I would tell him so, | Vanquish any
e|-----------------------------------------------------------------------|
B|-----------------------------------------------------------------------|
G|--0-0-0-0-------------6-6-6-6----------2-2-2-2-----------------5-5-5-5-|
D|-2-2-2-2-------------7-7-7-7----------0-0-0-0-----------------7-7-7-7--|
A|-----------------------------------------------------------------------|
E|-----------------------------------------------------------------------|
 
doubt but there's | something about  | competition | that leaves a
e|-----------------------------------------------------------------------|
B|-----------------------------------------------------------------------|
G|--0-0-0-0------------6-6-6-6------------9-9-----------8-8--------------|
D|-2-2-2-2------------7-7-7-7------------7-7-----------7-7---------------|
A|-----------------------------------------------------------------------|
E|-----------------------------------------------------------------------|
 
bad taste in  | my mouth  | We're a stone's  | We're a stone's throw -
e|-----------------------------------------------------------------------|
B|-----------------------------------------------------------------------|
G|--7-7----------7-7-----------0-0-0-0------------6-6-6-6----------------|
D|-7-7----------6-6-----------2-2-2-2------------7-7-7-7-----------------|
A|-----------------------------------------------------------------------|
E|-----------------------------------------------------------------------|
 
 
[Verse]
He is the sun god alive from the tomb
They all get lit up when he walks into the room
e|---------------------------------------------------------------------------|
B|---------------------------------------------------------------------------|
G|---------------------------------------------------------------------------|
D|--0-0-0----------0-0---------0-0-0-----------------------------------------|
A|-2-2-2---------4-5---------5-5-5-------------------------------------------|
E|---------------------------------------------------------------------------|
 
e|---------------------------------------------------------------------------|
B|---------------------------------------------------------------------------|
G|---------------------------------------------------------------------------|
D|---0--0----0-0----------0-0-0-0--------------------------------------------|
A|-10-10----9-9---------10-9-7-5---------------------------------------------|
E|---------------------------------------------------------------------------|
 
But music's the real tones, it's timeless and free
And stretches from Memphis, Egypt to Memphis, Tennessee
e|---------------------------------------------------------------------------|
B|---------------------------------------------------------------------------|
G|---------------------------------------------------------------------------|
D|--0-0-0----------0-0---------0-0-0-----------------------------------------|
A|-2-2-2---------4-5---------5-5-5-------------------------------------------|
E|---------------------------------------------------------------------------|
 
e|---------------------------------------------------------------------------|
B|---------------------------------------------------------------------------|
G|---------------------------------------------------------------------------|
D|---0--0----0-0----------0-0-0-0--------------------------------------------|
A|-10-10----9-9---------10-9-7-5---------------------------------------------|
E|---------------------------------------------------------------------------|
 
And we're a stone, whoa
Whoa
We're a stone, whoa
Whoa
 
e|---------------------------------------------------------------------------|
B|---------------------------------------------------------------------------|
G|---------------------------------------------------------------------------|
D|--0-0-0----------0-0---------0-0-0-----------------------------------------|
A|-2-2-2---------4-5---------5-5-5-------------------------------------------|
E|---------------------------------------------------------------------------|
 
e|---------------------------------------------------------------------------|
B|---------------------------------------------------------------------------|
G|---------------------------------------------------------------------------|
D|---0--0----0-0----------0-0-0-0--------------------------------------------|
A|-10-10----9-9---------10-9-7-5---------------------------------------------|
E|---------------------------------------------------------------------------|
 
[Chorus]
We're a stone's | throw      | away from    | our own language,
e|-----------------------------------------------------------------------|
B|-----------------------------------------------------------------------|
G|--0-0-0-0--------6-6-6-6------2-2-2-2---------9-9-9-9------------------|
D|-2-2-2-2--------7-7-7-7------0-0-0-0----------7-7-7-7------------------|
A|-----------------------------------------------------------------------|
E|-----------------------------------------------------------------------|
 
 And if I wasn't the | Victorian type | I would tell him so, | Vanquish any
e|-----------------------------------------------------------------------|
B|-----------------------------------------------------------------------|
G|--0-0-0-0-------------6-6-6-6----------2-2-2-2-----------------5-5-5-5-|
D|-2-2-2-2-------------7-7-7-7----------0-0-0-0-----------------7-7-7-7--|
A|-----------------------------------------------------------------------|
E|-----------------------------------------------------------------------|
 
doubt but there's | something about  | competition | that leaves a
e|-----------------------------------------------------------------------|
B|-----------------------------------------------------------------------|
G|--0-0-0-0------------6-6-6-6------------9-9-----------8-8--------------|
D|-2-2-2-2------------7-7-7-7------------7-7-----------7-7---------------|
A|-----------------------------------------------------------------------|
E|-----------------------------------------------------------------------|
 
bad taste in  | my mouth  | We're a stone's  | We're a stone's throw -
e|-----------------------------------------------------------------------|
B|-----------------------------------------------------------------------|
G|--7-7----------7-7-----------0-0-0-0------------6-6-6-6----------------|
D|-7-7----------6-6-----------2-2-2-2------------7-7-7-7-----------------|
A|-----------------------------------------------------------------------|
E|-----------------------------------------------------------------------|
 
[Bridge]
Yeah, Oh
e|---------------------------------------------------------------------------|
B|---------------------------------------------------------------------------|
G|---------------------------------------------------------------------------|
D|--0-0-0-0---0-0-0-0-----0-0-0-0--0-0-0-0-----------------------------------|
A|-2-2-2-2---1-1-1-1-----6-6-6-6--6-6-6-5------------------------------------|
E|---------------------------------------------------------------------------|
 
[Last verse]
 
When we know | we've  | found each other
e|---------------------------------------------------------------------------|
B|---------------------------------------------------------------------------|
G|---------------------------------------------------------------------------|
D|---------------------------------------------------------------------------|
A|-2----------4-5---------5--------------------------------------------------|
E|---------------------------------------------------------------------------|
 
I will  | love you more  | for all your wounded lovers, But we'll
e|---------------------------------------------------------------------------|
B|---------------------------------------------------------------------------|
G|---------------------------------------------------------------------------|
D|---------------------------------------------------------------------------|
A|-10-----8-----------------10-8-5-------------------------------------------|
E|---------------------------------------------------------------------------|
 
Leave them in a moonlit| daisy garden | to their own
e|---------------------------------------------------------------------------|
B|---------------------------------------------------------------------------|
G|---------------------------------------------------------------------------|
D|--0-0-0------------------0-0----------0-0-0--------------------------------|
A|-2-2-2------------------4-5----------5-5-5---------------------------------|
E|---------------------------------------------------------------------------|
 
Excavations | With a compass  | And we'll hope they make it home
e|---------------------------------------------------------------------------|
B|---------------------------------------------------------------------------|
G|---------------------------------------------------------------------------|
D|---0--0------0-0-----------------0-0-0-------------------------------------|
A|-10-10------8-8----------------10-8-5--------------------------------------|
E|---------------------------------------------------------------------------|
 
 
[Refrain]
'Cause we're a stone
Whoa
e|---------------------------------------------------------------------------|
B|---------------------------------------------------------------------------|
G|---------------------------------------------------------------------------|
D|--0-0-0----------0-0---------0-0-0-----------------------------------------|
A|-2-2-2---------4-5---------5-5-5-------------------------------------------|
E|---------------------------------------------------------------------------|
 
e|---------------------------------------------------------------------------|
B|---------------------------------------------------------------------------|
G|---------------------------------------------------------------------------|
D|---0--0----0-0----------0-0-0-0--------------------------------------------|
A|-10-10----9-9---------10-9-7-5---------------------------------------------|
E|---------------------------------------------------------------------------|
 
We're a stone
Whoa
e|---------------------------------------------------------------------------|
B|---------------------------------------------------------------------------|
G|---------------------------------------------------------------------------|
D|--0-0-0----------0-0---------0-0-0-----------------------------------------|
A|-2-2-2---------4-5---------5-5-5-------------------------------------------|
E|---------------------------------------------------------------------------|
 
e|---------------------------------------------------------------------------|
B|---------------------------------------------------------------------------|
G|---------------------------------------------------------------------------|
D|---0--0----0-0----------0-0-0-0--------------------------------------------|
A|-10-10----9-9---------10-9-7-5---------------------------------------------|
E|---------------------------------------------------------------------------|
 
[Chorus]
We're a stone's | throw      | away from    | our own language,
e|-----------------------------------------------------------------------|
B|-----------------------------------------------------------------------|
G|--0-0-0-0--------6-6-6-6------2-2-2-2---------9-9-9-9------------------|
D|-2-2-2-2--------7-7-7-7------0-0-0-0----------7-7-7-7------------------|
A|-----------------------------------------------------------------------|
E|-----------------------------------------------------------------------|
 
 And if I wasn't the | Victorian type | I would tell him so, | Vanquish any
e|-----------------------------------------------------------------------|
B|-----------------------------------------------------------------------|
G|--0-0-0-0-------------6-6-6-6----------2-2-2-2-----------------5-5-5-5-|
D|-2-2-2-2-------------7-7-7-7----------0-0-0-0-----------------7-7-7-7--|
A|-----------------------------------------------------------------------|
E|-----------------------------------------------------------------------|
 
doubt but there's | something about  | competition | that leaves a
e|-----------------------------------------------------------------------|
B|-----------------------------------------------------------------------|
G|--0-0-0-0------------6-6-6-6------------9-9-----------8-8--------------|
D|-2-2-2-2------------7-7-7-7------------7-7-----------7-7---------------|
A|-----------------------------------------------------------------------|
E|-----------------------------------------------------------------------|
 
bad taste in  | my mouth  | We're a stone's  | We're a stone's throw -
e|-----------------------------------------------------------------------|
B|-----------------------------------------------------------------------|
G|--7-7----------7-7-----------0-0-0-0------------6-6-6-6----------------|
D|-7-7----------6-6-----------2-2-2-2------------7-7-7-7-----------------|
A|-----------------------------------------------------------------------|
E|-----------------------------------------------------------------------|
 
[Outro]
We're a stone's - Oh
e|---------------------------------------------------------------------------|
B|---------------------------------------------------------------------------|
G|---------------------------------------------------------------------------|
D|---------------------------------------------------------------------------|
A|-2----------4-5---------5--------------------------------------------------|
E|---------------------------------------------------------------------------|
 
e|---------------------------------------------------------------------------|
B|---------------------------------------------------------------------------|
G|---------------------------------------------------------------------------|
D|---------------------------------------------------------------------------|
A|-10-----8-----------------10-8-5-----------3-------------------------------|
E|---------------------------------------------------------------------------|
            
Submit corrections

↑ Back to top | Tablatures and chords for acoustic guitar and electric guitar, ukulele, drums are parodies/interpretations of the original songs. You may use it for private study, scholarship, research or language learning purposes only