Home » A » Anna Nalick »

Anna Nalick - At Now Tabs

Artists:  A B C D E F G H I J K L M N O P Q R S T U V W X Y Z # 

At Now Tabs

(ver. 1) Click to play this song!
Anna Nalick
[Intro]
e|-------------------------------------------------|
B|-------------------------------------------------|
G|-------------------------------------------------|
D|-------------------------------------------------|
A|--2-2-2-2--2-2-2-2-------------------------------|
E|-0-0-0-0--0-0-0-0--------------------------------|
 
[Verses]
 I've run races, straight like laces
e|-------------------------------------------------|
B|-------------------------------------------------|
G|-------------------------------------------------|
D|-------------------------------------------------|
A|--2-2-2-2--2-2-2-2-------------------------------|
E|-0-0-0-0--0-0-0-0--------------------------------|
 
My left writes rhymes, when it's all wrong in my right mind
e|-------------------------------------------------|
B|-------------------------------------------------|
G|-------------------------------------------------|
D|----------------2-2------------------------------|
A|--2-2-2-2--2-2-0-0-------------------------------|
E|-0-0-0-0--3-3------------------------------------|
 
My left dont know, where my right goes, Or
e|-------------------------------------------------|
B|-------------------------------------------------|
G|-------------------------------------------------|
D|-------------------------------------------------|
A|--2-2-2-2--2-2-2-2-------------------------------|
E|-0-0-0-0--0-0-0-0--------------------------------|
 
 Sold-out window blows, ego shows up apropos though
e|-------------------------------------------------|
B|-------------------------------------------------|
G|-------------------------------------------------|
D|----------------2-2------------------------------|
A|--2-2-2-2--2-2-0-0-------------------------------|
E|-0-0-0-0--3-3------------------------------------|
 
 
[Pre-Chorus]
Headlight driving range, I say I can change
e|-------------------------------------------------|
B|-------------------------------------------------|
G|-------------------------------------------------|
D|----------2----------2---------------------------|
A|--2-2-2-0----2-2-2-0-----------------------------|
E|-0-0-0------0-0-0--------------------------------|
 
It just tells me I'm lying
e|-------------------------------------------------|
B|-------------------------------------------------|
G|--------------------2-2--------------------------|
D|---------------2-2-0-0---------------------------|
A|----2-2-2-2---3-3--------------------------------|
E|---0-0-0-----------------------------------------|
 
 Bullets through my brain, you should see how
e|-------------------------------------------------|
B|-------------------------------------------------|
G|-------------------------------------------------|
D|----------2----------2---------------------------|
A|--2-2-2-0----2-2-2-0-----------------------------|
E|-0-0-0------0-0-0--------------------------------|
 
They shoot me down when I'm trying
e|-------------------------------------------------|
B|-------------------------------------------------|
G|--------------------2-2--------------------------|
D|---------------2-2-0-0---------------------------|
A|----2-2-2-2---3-3--------------------------------|
E|---0-0-0-----------------------------------------|
 
 
[Chorus]
Say this is where you're at now, lost your man and your big house
e|-------------------------------------------------|
B|-------------------------------------------------|
G|-------------------------------------------------|
D|--2-2-2-2---2-2-2-2------------------------------|
A|-4-4-4-4---3-3-3-3-------------------------------|
E|-------------------------------------------------|
 
So you can sit at your piano twenty hours a day, write a thousand words
out of fear you got nothing to say
e|-------------------------------------------------|
B|-------------------------------------------------|
G|-------------------------------------------------|
D|-------------------------------------------------|
A|--2-2-2-2--2-2-2-2-------------------------------|
E|-0-0-0-0--0-0-0-0--------------------------------|
 
But I wanna get some, have fun while I'm still young
e|-------------------------------------------------|
B|-------------------------------------------------|
G|-------------------------------------------------|
D|--2-2-2-2---2-2-2-2------------------------------|
A|-4-4-4-4---3-3-3-3-------------------------------|
E|-------------------------------------------------|
 
Shotgun in the old flesh-bag tonight, cry about it,
I'm gonna have the time of your life
e|-------------------------------------------------|
B|-------------------------------------------------|
G|-------------------------------------------------|
D|-------------------------------------------------|
A|--2-2-2-2--2-2-2-2-------------------------------|
E|-0-0-0-0--0-0-0-0--------------------------------|
 
 
[Bridge 1]
La la la
e|-------------------------------------------------|
B|-------------------------------------------------|
G|-------------------------------------------------|
D|-------------------------------------------------|
A|--2-2-2-2--2-2-2-2-------------------------------|
E|-0-0-0-0--0-0-0-0--------------------------------|
 
La da da
e|-------------------------------------------------|
B|-------------------------------------------------|
G|-------------------------------------------------|
D|----------------2-2------------------------------|
A|--2-2-2-2--2-2-0-0-------------------------------|
E|-0-0-0-0--3-3------------------------------------|
 
 
[Pre-Chorus 2]
Hubris loses me sleep,And true love seeps
e|-------------------------------------------------|
B|-------------------------------------------------|
G|-------------------------------------------------|
D|----------2----------2---------------------------|
A|--2-2-2-0----2-2-2-0-----------------------------|
E|-0-0-0------0-0-0--------------------------------|
 
Through the cracks in the walls
e|-------------------------------------------------|
B|-------------------------------------------------|
G|--------------------2-2--------------------------|
D|---------------2-2-0-0---------------------------|
A|----2-2-2-2---3-3--------------------------------|
E|---0-0-0-----------------------------------------|
 
Says I'm too far gone, Crossed the rubicon
e|-------------------------------------------------|
B|-------------------------------------------------|
G|-------------------------------------------------|
D|----------2----------2---------------------------|
A|--2-2-2-0----2-2-2-0-----------------------------|
E|-0-0-0------0-0-0--------------------------------|
 
On the way to the ball
e|-------------------------------------------------|
B|-------------------------------------------------|
G|--------------------2-2--------------------------|
D|---------------2-2-0-0---------------------------|
A|----2-2-2-2---3-3--------------------------------|
E|---0-0-0-----------------------------------------|
 
 
[Chorus 2]
This is where you're at now, Epsom salt in the bathtub
e|-------------------------------------------------|
B|-------------------------------------------------|
G|-------------------------------------------------|
D|--2-2-2-2---2-2-2-2------------------------------|
A|-4-4-4-4---3-3-3-3-------------------------------|
E|-------------------------------------------------|
 
'Cause that 7 o'clock walk left you cold, and the Tums don't work
Cotton candy vomit in the bowl
e|-------------------------------------------------|
B|-------------------------------------------------|
G|-------------------------------------------------|
D|-------------------------------------------------|
A|--2-2-2-2--2-2-2-2-------------------------------|
E|-0-0-0-0--0-0-0-0--------------------------------|
 
And the night sits on the water like an oil slick
e|-------------------------------------------------|
B|-------------------------------------------------|
G|-------------------------------------------------|
D|--2-2-2-2---2-2-2-2------------------------------|
A|-4-4-4-4---3-3-3-3-------------------------------|
E|-------------------------------------------------|
 
Round island breast still swollen high over burning lungs,
Did you have the time of my life? My life, My life
e|-------------------------------------------------|
B|-------------------------------------------------|
G|-------------------------------------------------|
D|-------------------------------------------------|
A|--2-2-2-2--2-2-2-2-------------------------------|
E|-0-0-0-0--0-0-0-0--------------------------------|
 
 
[Bridge 2]
And I said please don't leave me alone
e|-------------------------------------------------|
B|----------2~----2~-------------------------------|
G|---------3----3----------------------------------|
D|---0~---0----0------0~---------------------------|
A|--2----------------2-----------------------------|
E|-0----------------0------------------------------|
 
I'm filling my youngs, locked in my new car
e|-------------------------------------------------|
B|----------2~----2~-------------------------------|
G|-------------------------------------------------|
D|----2-2-2-2--2-2-2-2-----------------------------|
A|---0-0-0-0--0-0-0-0------------------------------|
E|-------------------------------------------------|
 
And I said please don't leave me alone
e|-------------------------------------------------|
B|----------2~----2~-------------------------------|
G|---------3----3----------------------------------|
D|---0~---0----0------0~---------------------------|
A|--2----------------2-----------------------------|
E|-0----------------0------------------------------|
 
I hear telephones and angels, Send me a new heart
e|-------------------------------------------------|
B|----------2~----2~-------------------------------|
G|-------------------------------------------------|
D|----2-2-2-2--2-2-2-2-----------------------------|
A|---0-0-0-0--0-0-0-0------------------------------|
E|-------------------------------------------------| 
 
[Bridge 2]
 
Oh...
e|-------------------------------------------------|
B|-------------------------------------------------|
G|----------------------2-2-2-2--------------------|
D|--3-3-3-3------------0-0-0-0---------------------|
A|-0-0-0-0----2-2-2-2------------2-2-2-2-----------|
E|-----------0-0-0-0------------0-0-0-0------------|
 
 
[Chorus 3]
This is where I'm at now
On my knees in the back row
e|-------------------------------------------------|
B|-------------------------------------------------|
G|-------------------------------------------------|
D|-------------------------------------------------|
A|-4---------3-------------------------------------|
E|-------------------------------------------------|
 
Anthropomorphizing all
That is who is what is what I've always known
e|-------------------------------------------------|
B|-------------------------------------------------|
G|-------------------------------------------------|
D|-------------------------------------------------|
A|--2-2-2-2--2-2-2-2-------------------------------|
E|-0-0-0-0--0-0-0-0--------------------------------|
 
So my left can hold hands with my right hand
e|-------------------------------------------------|
B|-------------------------------------------------|
G|-------------------------------------------------|
D|--2-2-2-2---2-2-2-2------------------------------|
A|-4-4-4-4---3-3-3-3-------------------------------|
E|-------------------------------------------------|
 
Skyrocket cross-sections first
In a creation ceiling and busted open and find God who will
e|-------------------------------------------------|
B|-------------------------------------------------|
G|-------------------------------------------------|
D|-------------------------------------------------|
A|--2-2-2-2--2-2-2-2-------------------------------|
E|-0-0-0-0--0-0-0-0--------------------------------|
 
Say I don't need a clever rhyme to believe in love that'll last forever
e|-------------------------------------------------|
B|-------------------------------------------------|
G|-------------------------------------------------|
D|--2-2-2-2---2-2-2-2------------------------------|
A|-4-4-4-4---3-3-3-3-------------------------------|
E|-------------------------------------------------|
 
And I don't need a ploy or a body to bother
Need a good man with honor and still how's your father
e|-------------------------------------------------|
B|-------------------------------------------------|
G|-------------------------------------------------|
D|-------------------------------------------------|
A|--2-2-2-2--2-2-2-2-------------------------------|
E|-0-0-0-0--0-0-0-0--------------------------------|
 
And this "my" this "I" this self will die, it's not really mine
e|-------------------------------------------------|
B|-------------------------------------------------|
G|-------------------------------------------------|
D|--2-2-2-2---2-2-2-2------------------------------|
A|-4-4-4-4---3-3-3-3-------------------------------|
E|-------------------------------------------------|
 
It's not really mine but I will show you beauty when
I have the hands and heart and lips and eyes
e|-------------------------------------------------|
B|-------------------------------------------------|
G|-------------------------------------------------|
D|-------------------------------------------------|
A|--2-2-2-2--2-2-2-2-------------------------------|
E|-0-0-0-0--0-0-0-0--------------------------------|
 
And mind,
That knows time is only man-made
well I lie and that I won't be wasting mine
e|-------------------------------------------------|
B|-------------------------------------------------|
G|-------------------------------------------------|
D|--2-2-2-2---2-2-2-2------------------------------|
A|-4-4-4-4---3-3-3-3-------------------------------|
E|-------------------------------------------------|
 
We're one love
And one strife
e|-------------------------------------------------|
B|-------------------------------------------------|
G|-------------------------------------------------|
D|-------------------------------------------------|
A|--2-2-2-2--2-2-2-2-------------------------------|
E|-0-0-0-0--0-0-0-0--------------------------------|
 
And I'm gonna have the time of my life
My life
It's my life
e|-------------------------------------------------|
B|-------------------------------------------------|
G|-------------------------------------------------|
D|--2-2-2-2---2-2-2-2------------------------------|
A|-4-4-4-4---3-3-3-3-------------------------------|
E|-------------------------------------------------|
 
[Outro]
La la la
e|-------------------------------------------------|
B|-------------------------------------------------|
G|-------------------------------------------------|
D|-------------------------------------------------|
A|--2-2-2-2--2-2-2-2-------------------------------|
E|-0-0-0-0--0-0-0-0--------------------------------|
            
Submit corrections

↑ Back to top | Tablatures and chords for acoustic guitar and electric guitar, ukulele, drums are parodies/interpretations of the original songs. You may use it for private study, scholarship, research or language learning purposes only