» » »

Animals As Leaders - Physical Education Tabs

Artists:  A B C D E F G H I J K L M N O P Q R S T U V W X Y Z # 

Physical Education Tabs

(ver. 1) Click to play this song!
Animals As Leaders
 Rating:
2.8/5 (22 votes)

 Physical Education  lessons Tabs too difficult? Try these video lessons and learn fast
 
                Tuning: Standard 6 (7th string tuned to A, 8th string tuned to C#)

 E|----------------------------------------------------------------------------|
 B|----------------------------------------------------------------------------|
 G|----------------------------------------------------------------------------|
 D|-------7(+)-------7(+)--------7(+)--------7(+)-------------7(+)--------7(+)-|
 A|---7(+)--------7(+)-------7(+)--------7(+)----7(+)-----7(+)--------7(+)-----|
 E|-----------5(+)-------------------5(+)-------------------------5(+)---------|
 A|-0--------------------------------------------------------------------------|
C#|------------------------0----------------------------0----------------------|
          [6]                         [7]                         [6]

 E|----------------------------------------------------------------------------|
 B|----------------------------------------------------------------------------|
 G|----------------------------------------------------------------------------|
 D|-------7(+)--------7(+)-------------7(+)--------7(+)------------------------|
 A|---7(+)--------7(+)----7(+)-----7(+)--------7(+)----------------------------|
 E|-----------5(+)-------------------------5(+)--------------------------------|
 A|-0--------------------------------------------------------------------------|
C#|------------------------------0---------------------------------------------|
           [7]                          [6]
            
Submit corrections


        Physical Education  lessons Hard to play? Try these video lessons and learn fast Physical Education  lessons
        
↑ Back to top | Tablatures and chords for acoustic guitar and electric guitar, ukulele, drums are parodies/interpretations of the original songs. You may use it for private study, scholarship, research or language learning purposes only