Home » A » Animal Collective »

Animal Collective - The Purple Bottle Tabs

Artists:  A B C D E F G H I J K L M N O P Q R S T U V W X Y Z # 

The Purple Bottle Tabs

(ver. 1) Click to play this song!
Animal Collective
[Intro]

E |-------------------------|
B |-9--9--9--9--9--9--9--9--|
E |-7--7--7--7--7--7--7--7--|
B |-9--9--9--9--9--9--9--9--| Repeat
G#|-8--8--8--8--8--8--8--8--|
E |-0--0--0--0--0--0--0--0--|

[Verse 1]

E |-------------------------|-------------------------|
B |-9--9--9--9--9--9--9--9--|-4--4--4--4--4--4--4--4--|
E |-7--7--7--7--7--7--7--7--|-2--2--2--2--2--2--2--2--|
B |-9--9--9--9--9--9--9--9--|-4--4--4--4--4--4--4--4--| \
G#|-8--8--8--8--8--8--8--8--|-3--3--3--3--3--3--3--3--|  \
E |-0--0--0--0--0--0--0--0--|-------------------------|   \
                                                           \  Repeat these two until the chorus
E |-2--2--2--2--2--2--2--2--|-------------------------|    /
B |-2--2--2--2--2--2--2--2--|-7~----------------------|   /
E |-2--2--2--2--2--2--2--2--|-5~----------------------|  /
B |-2--2--2--2--2--2--2--2--|-7~----------------------| /
G#|-2--2--2--2--2--2--2--2--|-6~----------------------|
E |-2--2--2--2--2--2--2--2--|-------------------------|

E |-------------------------|
B |-9--9--9--9--9--9--9--9--|
E |-7--7--7--7--7--7--7--7--|
B |-9--9--9--9--9--9--9--9--|
G#|-8--8--8--8--8--8--8--8--|
E |-0--0--0--0--0--0--0--0--|

[Chorus]

   "Sometimes you're quiet..."
E |-------------------------|-2--2--2--2--2--2--2--2--|
B |-4--4--4--4--4--4--4--4--|-2--2--2--2--2--2--2--2--|
E |-2--2--2--2--2--2--2--2--|-2--2--2--2--2--2--2--2--|
B |-4--4--4--4--4--4--4--4--|-2--2--2--2--2--2--2--2--|
G#|-3--3--3--3--3--3--3--3--|-2--2--2--2--2--2--2--2--|
E |-------------------------|-2--2--2--2--2--2--2--2--|

E |-------------------------|
B |-9--9--9--9--9--9--9--9--|
E |-7--7--7--7--7--7--7--7--|
B |-9--9--9--9--9--9--9--9--|
G#|-8--8--8--8--8--8--8--8--|
E |-0--0--0--0--0--0--0--0--|

Repeat the verse and the chorus.

[Break] - This doesn't have any guitars I think, so I'm going off of the live version here.

  "Can I tell you that you are the purple in me..."
E |-------------------------|-------------------------|
B |-2--2--2--2--4--4--4--4--|-9--9--9--9--9--9--9--9--|
E |-0--0--0--0--2--2--2--2--|-7--7--7--7--7--7--7--7--|
B |-2--2--2--2--4--4--4--4--|-9--9--9--9--9--9--9--9--| x3
G#|-1--1--1--1--3--3--3--3--|-8--8--8--8--8--8--8--8--|
E |-------------------------|-0--0--0--0--0--0--0--0--|
  
  "There's a feeling in your bottle, found your bottle..."
E |-------------2--2--2--2--|-2--2--2--2--2--2--2--2--|
B |-4--4--4--4--2--2--2--2--|-2--2--2--2--2--2--2--2--|
E |-2--2--2--2--2--2--2--2--|-2--2--2--2--2--2--2--2--|
B |-4--4--4--4--2--2--2--2--|-2--2--2--2--2--2--2--2--|
G#|-3--3--3--3--2--2--2--2--|-2--2--2--2--2--2--2--2--|
E |-------------2--2--2--2--|-2--2--2--2--2--2--2--2--|
 
  "Found your heart..."
E |-------------------------|
B |-9--9--9--9--9--9--9--9--|
E |-7--7--7--7--7--7--7--7--|
B |-9--9--9--9--9--9--9--9--|
G#|-8--8--8--8--8--8--8--8--|
E |-0--0--0--0--0--0--0--0--|

  "Gives a feeling from your bottled little part..."
E |-------------2--2--2--2--|-------------------------|
B |-4--4--4--4--2--2--2--2--|-9--9--9--9--9--9--9--9--|
E |-2--2--2--2--2--2--2--2--|-7--7--7--7--7--7--7--7--|
B |-4--4--4--4--2--2--2--2--|-9--9--9--9--9--9--9--9--|
G#|-3--3--3--3--2--2--2--2--|-8--8--8--8--8--8--8--8--|
E |-------------2--2--2--2--|-0--0--0--0--0--0--0--0--|

Repeat the whole break.

[Outro]

E |-------------------------|
B |-9--9--9--9--9--9--9--9--|
E |-7--7--7--7--7--7--7--7--|
B |-9--9--9--9--9--9--9--9--| Repeat
G#|-8--8--8--8--8--8--8--8--|
E |-0--0--0--0--0--0--0--0--|

E |-------------------------|-------------------------|
B |-9--9--9--9--9--9--9--9--|-4--4--4--4--4--4--4--4--|
E |-7--7--7--7--7--7--7--7--|-2--2--2--2--2--2--2--2--|
B |-9--9--9--9--9--9--9--9--|-4--4--4--4--4--4--4--4--|
G#|-8--8--8--8--8--8--8--8--|-3--3--3--3--3--3--3--3--|
E |-0--0--0--0--0--0--0--0--|-------------------------|

E |-2--2--2--2--2--2--2--2--|-------------------------|
B |-2--2--2--2--2--2--2--2--|-7~----------------------|
E |-2--2--2--2--2--2--2--2--|-5~----------------------|
B |-2--2--2--2--2--2--2--2--|-7~----------------------|
G#|-2--2--2--2--2--2--2--2--|-6~----------------------|
E |-2--2--2--2--2--2--2--2--|-------------------------|

E |-------------------------|
B |-9--9--9--9--9--9--9--9--|
E |-7--7--7--7--7--7--7--7--|
B |-9--9--9--9--9--9--9--9--|
G#|-8--8--8--8--8--8--8--8--|
E |-0--0--0--0--0--0--0--0--|

I'm not sure about the rhythm for the next part (the eh-ooh's) because it sounds like it may be improvised,
but this is close how Avey plays it live:

E |-------------------------|-------------------------|-------------------------|
B |-------------------------|-------------------------|-------------------------|
E |-0-----0-----0-----0-----|-------------------------|-------------------------|
B |-9-----9-----9-----9-----|------9-------9-------9--|------9-------9-------9--|
G#|-8-----8-----8-----8-----|----8-------8-------8----|----8-------8-------8----|
E |-0-----0-----0-----0-----|-7-------7-------7-------|-7-------7-------7-------|

Crush high part:
E |-------------------------|-------------------------|-------------------------|-------------------------|
B |-------------------------|-------------------------|-------------------------|-------------------------|
E |-0-----0-----0-----0-----|-------------------------|-------------------------|-------------------------|
B |-9-----9-----9-----9-----|------9-------9-------9--|------7-------7-------7--|------7-------7-------7--|
G#|-8-----8-----8-----8-----|----8-------8-------8----|----7-------7-------7----|----7-------7-------7----|
E |-0-----0-----0-----0-----|-7-------7-------7-------|-7-------7-------7-------|-7-------7-------7-------|

Repeat the above four measures until the end of the song.            
Submit corrections

↑ Back to top | Tablatures and chords for acoustic guitar and electric guitar, ukulele, drums are parodies/interpretations of the original songs. You may use it for private study, scholarship, research or language learning purposes only