Home » A » Animal Collective »

Animal Collective - Fireworks Tabs

Artists:  A B C D E F G H I J K L M N O P Q R S T U V W X Y Z # 

Fireworks Tabs

(ver. 1) Click to play this song!
Animal Collective
Use delay and I think tremolo and flanger.

Repeat this until around 2:56
E |--------------------------------------------------------------------------|
B |--------------------------------------------------------------------------|
E |--------------------------------------------------------------------------|
B |--9--9--9--9--9--9--8--8--8--8--8--8--6--6--6--6--6--6--4--4--4--4--4--4--|
G#|--9--9--9--9--9--9--7--7--7--7--7--7--5--5--5--5--5--5--4--4--4--4--4--4--|
E |--9--9--9--9--9--9--8--8--8--8--8--8--6--6--6--6--6--6--4--4--4--4--4--4--|

Then:
E |-----------------------------------|-----------------------------------|
B |-----------------------------------|-----------------------------------|
E |-----------------------------------|-----------------------------------|
B |----------4------------------------|----------4------------------------|
G#|-----4---------4----4--------4-----|-----4---------4----4--------4-----|
E |--4-----4---4----4-----4--4-----4--|--4-----4---4----4-----4--4-----4--|

E |-----------------------------------|-----------------------------------|
B |-----------------------------------|-----------------------------------|
E |-----------------------------------|-----------------------------------|
B |----------8------------------------|----------4------------------------|
G#|-----7---------7----7--------7-----|-----4---------4----4--------------|
E |--6-----6---6----6-----6--6-----6--|--3-----3---3----3-----3--8--6-----|

Then, when the vocals come in at 3:19:
E |--------------------------------------------------|
B |--------------------------------------------------|
E |--------------------------------------------------|
B |--4--4--4--4--4--4--4--4--4--4--4--4--4--4--4--4--|
G#|--4--4--4--4--4--4--4--4--4--4--4--4--4--4--4--4--|
E |--4--4--4--4--4--4--4--4--4--4--4--4--4--4--4--4--|

E |--------------------------------------------------|
B |--------------------------------------------------|
E |--------------------------------------------------|
B |--8--8--8--8--8--8--8--8--4--4--4--4--4--4--4--4--|
G#|--7--7--7--7--7--7--7--7--4--4--4--4--4--4--4--4--|
E |--6--6--6--6--6--6--6--6--3--3--3--3--3--3--3--3--|

^^ This is played until 4:29.

Then there's no guitar between 4:29 and 4:40.

Between 4:40 and 4:52, this is repeated:
E |--------------------------------------------------|
B |--------------------------------------------------|
E |--------------------------------------------------|
B |--4--4--4--4--4--4--4--4--4--4--4--4--4--4--4--4--|
G#|--4--4--4--4--4--4--4--4--4--4--4--4--4--4--4--4--|
E |--4--4--4--4--4--4--4--4--4--4--4--4--4--4--4--4--|

Then this is repeated from 4:52 to the end of the song:
E |--------------------------------------------------------------------------|
B |--------------------------------------------------------------------------|
E |--------------------------------------------------------------------------|
B |--9--9--9--9--9--9--8--8--8--8--8--8--6--6--6--6--6--6--4--4--4--4--4--4--|
G#|--9--9--9--9--9--9--7--7--7--7--7--7--5--5--5--5--5--5--4--4--4--4--4--4--|
E |--9--9--9--9--9--9--8--8--8--8--8--8--6--6--6--6--6--6--4--4--4--4--4--4--|            
Submit corrections

↑ Back to top | Tablatures and chords for acoustic guitar and electric guitar, ukulele, drums are parodies/interpretations of the original songs. You may use it for private study, scholarship, research or language learning purposes only