Home » A » Animal Collective »

Animal Collective - Banshee Beat Tabs

Artists:  A B C D E F G H I J K L M N O P Q R S T U V W X Y Z # 

Banshee Beat Tabs

(ver. 1) Click to play this song!
Animal Collective
E |-----------------------------------|
B |-----------------------------------|
E |-----4------4-------4-----4-----4--|
B |---------5-------5-----5-----5-----|
G#|--3--------------------------------|
E |-----------------------------------|

E |-------------------------------------------|
B |-------------------------------------------|
E |-----4----4----4----4----4----4----4----4--|
B |--------5----5----5----5----5----5----5----| Repeat
G#|--3~---------------------------------------|
E |-------------------------------------------|

This is when the percussion begins:
E |------------------------------------------|
B |------------------------------------------|
E |----4----4----4----4----4----4----4----4--|
B |-------5---------5---------5---------5----| Repeat
G#|--3---------3---------3---------3---------|
E |------------------------------------------|

   "Someone in my dictionary's..."
E |------------------------------------------|-------------------------------------------|
B |------------------------------------------|-------------------------------------------|
E |----5----5----5----5----5----5----5----5--|-----4----4----4----4----4----4----4----4--|
B |-------7---------7---------7---------7----|--------5---------5---------5---------5----|
G#|--5---------5---------5---------5---------|--3----------3---------3---------3---------|
E |------------------------------------------|-------------------------------------------|

  "So I have another party..."
E |------------------------------------------|------------------------------------------|
B |------------------------------------------|------------------------------------------|
E |----5----5----5----5----5----5----5----5--|----4----4----4----4----4----4----4----4--|
B |-------5---------5---------5---------5----|-------5---------5---------5---------5----|
G#|--5---------5---------5---------5---------|--3---------3---------3---------3---------|
E |------------------------------------------|------------------------------------------|
            
Submit corrections

↑ Back to top | Tablatures and chords for acoustic guitar and electric guitar, ukulele, drums are parodies/interpretations of the original songs. You may use it for private study, scholarship, research or language learning purposes only