Home » A » Ane Brun »

Ane Brun - What I Want Tabs

Artists:  A B C D E F G H I J K L M N O P Q R S T U V W X Y Z # 

What I Want Tabs

(ver. 1) Click to play this song!
Ane Brun

D ||--------------------|--------------------------|-------------------------|
A#||--------------------|------0----------------0--|------0------------------|
G ||--------------------|---------0-------0--------|---------0---------------|
D ||----------------1h3h|--1-----------------1-----|-----------1---------1-3-|
A#||--------------------|-----------0--3-----------|--2-----------0----------|
D ||--------------------|--------------------------|--------------1----------|
                                  
D |--------------------------|--------------1----------|------3h-1h3--------1-----|
A#|------0----------------0--|------0-------0----------|--------------3--------3--|
G |---------0-------0--------|---------0---------------|--------------------0-----|
D |--1-----------------1-----|-----------1---------1h3-|--1-----------------------|
A#|-----------0--3-----------|--2----------------------|--------------0--3--------|
D |--------------------------|-------------------------|--------------------------|
                                                                              
D |---------1---------------|--------------------------|--------------1----------|
A#|--2---0-------0----------|------0----------------0--|------0-------0----------|
G |---------0---------------|---------0-------0--------|---------0---------------|
D |-----------1---------1h3-|--1-----------------1-----|-----------1---------1h3-|
A#|--2----------------------|-----------0--3-----------|--2----------------------|
D |--------------1----------|--------------------------|-------------------------|
            
Submit corrections

↑ Back to top | Tablatures and chords for acoustic guitar and electric guitar, ukulele, drums are parodies/interpretations of the original songs. You may use it for private study, scholarship, research or language learning purposes only