» » »

Ane Brun - On Off Tabs

Artists:  A B C D E F G H I J K L M N O P Q R S T U V W X Y Z # 

On Off Tabs

(ver. 1) Click to play this song!
Ane Brun
 Rating:
4.3/5 (29 votes)

 On Off  lessons Tabs too difficult? Try these video lessons and learn fast
 
                [VERSE]

    C#m                                G
e|--------------------------------------------------------------------------|
B|----0-----0-----0----0-----0-----0---0-----0-----0---0-----0-----0--------|
G|------4-----4----------4-----4---------3-----3---------3-----3------------|
D|--------2-----2----------2-----2---------2-----2---------2-----2----------|
A|--4----------------4------------------------------------------------------|
E|-----------------------------------3---------------3----------------------|

    G#m                             G              F#
e|--------------------------------------------------------------------------|
B|----0-----0-----0---0-----0-----0---0-----0-----0---0-----0-----0---------|
G|------4-----4---------4-----4---------4-----4---------4-----4-------------|    X 2
D|--------2-----2-------------------------2-----2---------2-----2-----------|
A|------------------------4-------------------------------------------------|
E|--4---------------4-----------4---3---------------2-----------------------|


[CHORDS]

     E                              A
e|--------------------------------------------------------------------------|
B|-----0-----0-----0---0-----0--------2-----2-----2---2-----2---------------|
G|-------1-----1---------1-----1--------2-----2---------2-----2-------------|
D|---------2-----2---------2-----2--------2-----2---------2-----2-----------|
A|----------------------------------0---------------0-----------------------|
E|---0---------------0------------------------------------------------------|

     B                              G             F#
e|-----------------0--------------------------------------------------------|
B|-----4-----4---------4-----4---------3--3--3--3---2--2--2---2-------------|
G|-------4-----4---------4-----4-------4--4--4--4---3--3--3---3-------------|
D|---------4-----4---------4-----4-----5--5--5--5---4--4--4---4-------------|    X 2
A|---2---------------2------------------------------------------------------|
E|----------------------------------3---------3---2---------2---------------|


[BRIDGE]

      C#m            G#m              A              G#m
e|---------2h4-4-------------------------------------------0----------------|
B|-------0-----------4---5---4---0--------2-----2--------2----2-------------|
G|-----4-----------4---4---4---4---4----4-----4----4---4--------4-----------|
D|--------------------------------------------------------------------------|
A|---4------4-------------------------0-----0-------------------------------|
E|-------------------4-------------------------------4----------------------|

      C#m            G#m              A              G#m     
e|---------2h4-4------------------------------------------------------------|
B|-------0-----------4---5---4---5--------2-----2--------2-------2----------|
G|-----4-----------4---4---4---4---4----4-----4----4---4--- ---4----4-------|
D|--------------------------------------------------------------------------|
A|---4------4-------------------------0-----0-------------------------------|
E|-------------------4-------------------------------4-------4--------------|

      G            F#
e|--------------------------------------------------------------------------|
B|-----2--2--2--2--2---2---2---2---2----------------------------------------|
G|-----4--4--4--4--4---4---3---3---3h4--------------------------------------|
D|--------------------------------------------------------------------------|
A|--------------------------------------------------------------------------|
E|---3-------------2--------------------------------------------------------|
            
Submit corrections


        On Off  lessons Hard to play? Try these video lessons and learn fast On Off  lessons
        
↑ Back to top | Tablatures and chords for acoustic guitar and electric guitar, ukulele, drums are parodies/interpretations of the original songs. You may use it for private study, scholarship, research or language learning purposes only