Home » A » Ane Brun »

Ane Brun - Love And Misery Tabs

Artists:  A B C D E F G H I J K L M N O P Q R S T U V W X Y Z # 

Love And Misery Tabs

(ver. 1) Click to play this song!
Ane Brun
Intro]

e|----0---0---|----0---0---|----3---3---|----2---2---|
B|----1---1---|----3---3---|----0---0---|----0---0---|
G|--0---0---0-|--0---0---0-|--0---0---0-|--0---0---0-|
D|------------|------------|2-----------|0-----------|
A|3-----------|0-----------|------------|------------|
E|------------|------------|------------|------------|

e|----0---0---|----0---0---|----3---3---|----2-------|
B|----1---1---|----3---3---|----0---0---|----0-------|
G|--0---0---0-|--0---0---0-|--0---0---0-|--0---------|
D|------------|------------|2-----------|0-----------|
A|3-----------|0-----------|------------|------------|
E|------------|------------|------------|------------|


[Verse 1] x2

e|----0---0---|----0---0---|----3---3---|----2---2h3-|
B|----1---1---|----3---3---|----0---0---|----0---0---|
G|--0---0---0-|--0---0---0-|--0---0---0-|--0---0-----|
D|------------|------------|2-----------|0-----------|
A|3-----------|0-----------|------------|------------|
E|------------|------------|------------|------------|
          The best      in me.

e|----0---0---|----0---0---|----3---3---|----2---2h3-|
B|----1---1---|----3---3---|----0---0---|----0---0---|
G|--0---0---0-|--0---0---0-|--0---0---0-|--0---0-----|
D|------------|------------|2-----------|0-----------|
A|3-----------|0-----------|------------|------------|
E|------------|------------|------------|------------|
              Look      at us       and try   to see  
 

[Verse 2](a variation of no1)

e|----0---0---|----0---0---|----3---3---|----2---2h3-|
B|----3---1---|----1---3---|----0---0---|----0---0---|
G|--0---0---0-|--0---0---0-|--0---0---0-|--0---0-----|
D|------------|------------|2-----------|0-----------|
A|3-----------|0-----------|------------|------------|
E|------------|------------|------------|------------|

e|----0---0---|----0---0---|----3---3---|----2-------|
B|----3---1---|----1---3---|----0---0---|----0-------|
G|--0---0---0-|--0---0---0-|--0---0---0-|--0---------|
D|------------|------------|2-----------|0-----------|
A|3-----------|0-----------|------------|------------|
E|------------|------------|------------|------------|


[Verse 3] x2

e|----0---0---|----0---0---|----3---3---|----2---2h3-|
B|----1---1---|----3---3---|----0---0---|----0---0---|
G|--0---0---0-|--0---0---0-|--0---0---0-|--0---0-----|
D|------------|------------|2-----------|0-----------|
A|3-----------|0-----------|------------|------------|
E|------------|------------|------------|------------|

e|----0---0---|----0---0---|----3---3---|----2---2h3-|
B|----1---1---|----3---3---|----0---0---|----0---0---|
G|--0---0---0-|--0---0---0-|--0---0---0-|--0---0-----|
D|------------|------------|2-----------|0-----------|
A|3-----------|0-----------|------------|------------|
E|------------|------------|------------|------------|

e|----3-------|----2-------|
B|----0-------|----0-------|
G|--0---------|--0---------|
D|2-----------|0-----------|
A|------------|------------|
E|------------|------------| <--play this the last time(just before the solo).


[Solo]

 Guitar 1
e|7-------10--|8---7-------|----7-------|------------|
B|------------|--------8---|--------8---|7-----------|
G|------------|------------|9-----------|----9---7---|
D|------------|------------|------------|------------|
A|------------|------------|------------|------------|
E|------------|------------|------------|------------|

e|7-------10--|8---7-------|----7-------|------------|
B|------------|--------8---|--------8---|7---8---9---|
G|------------|------------|9-----------|------------|
D|------------|------------|------------|------------|
A|------------|------------|------------|------------|
E|------------|------------|------------|------------|

 Guitar 2
e|----0---0---|----2---2---|----0---0---|----2---2---|
B|----1---1---|----0---0---|----1---1---|----0---0---|
G|--0---0---0-|--0---0---0-|--0-------0-|--0---0-----|
D|------------|0-----------|------------|0-----------|
A|3-----------|------------|3-----3-----|------------|
E|------------|------------|------------|----------3-|

e|----0---0---|----2---2---|----0---0---|2---3---5---|
B|----1---1---|----0---0---|----1---1---|0---0---0---|I'm not quite sure
G|--0---0---0-|--0---0---0-|--0---0-----|------------|about this.I'ts 
D|------------|0-----------|----------0-|--0---0-----|so F**ing hard 
A|3-----------|------------|3-----3-----|------------|to make out the
E|------------|------------|------------|------------|background-guitar.


[Verse 1] x2

e|----0---0---|----0---0---|----3---3---|----2---2h3-|
B|----1---1---|----3---3---|----0---0---|----0---0---|
G|--0---0---0-|--0---0---0-|--0---0---0-|--0---0-----|
D|------------|------------|2-----------|0-----------|
A|3-----------|0-----------|------------|------------|
E|------------|------------|------------|------------|
          The best      in me.

e|----0---0---|----0---0---|----3---3---|----2---2h3-|
B|----1---1---|----3---3---|----0---0---|----0---0---|
G|--0---0---0-|--0---0---0-|--0---0---0-|--0---0-----|
D|------------|------------|2-----------|0-----------|
A|3-----------|0-----------|------------|------------|
E|------------|------------|------------|------------|
              Look      at us       and try   to see  


[Solo] x2

 Guitar 1
e|7-------10--|8---7-------|----7-------|------------|
B|------------|--------8---|--------8---|7-----------|
G|------------|------------|9-----------|----9---7---|
D|------------|------------|------------|------------|
A|------------|------------|------------|------------|
E|------------|------------|------------|------------|

e|7-------10--|8---7-------|----7-------|------------|
B|------------|--------8---|--------8---|7---8---9---|
G|------------|------------|9-----------|------------|
D|------------|------------|------------|------------|
A|------------|------------|------------|------------|
E|------------|------------|------------|------------|

 Guitar 2
e|----0---0---|----2---2---|----0---0---|----2---2---|
B|----1---1---|----0---0---|----1---1---|----0---0---|
G|--0---0---0-|--0---0---0-|--0-------0-|--0---0-----|
D|------------|0-----------|------------|0-----------|
A|3-----------|------------|3-----3-----|------------|
E|------------|------------|------------|----------3-|

e|----0---0---|----2---2---|----0---0---|2---3---5---|
B|----1---1---|----0---0---|----1---1---|0---0---0---|I'm not quite sure
G|--0---0---0-|--0---0---0-|--0---0-----|------------|about this.I'ts 
D|------------|0-----------|----------0-|--0---0-----|so F**ing hard 
A|3-----------|------------|3-----3-----|------------|to make out the
E|------------|------------|------------|------------|background-guitar.


[Verse 1] x2

e|----0---0---|----0---0---|----3---3---|----2---2h3-|
B|----1---1---|----3---3---|----0---0---|----0---0---|
G|--0---0---0-|--0---0---0-|--0---0---0-|--0---0-----|
D|------------|------------|2-----------|0-----------|
A|3-----------|0-----------|------------|------------|
E|------------|------------|------------|------------|
          The best      in me.

e|----0---0---|----0---0---|----3---3---|----2---2h3-|
B|----1---1---|----3---3---|----0---0---|----0---0---|
G|--0---0---0-|--0---0---0-|--0---0---0-|--0---0-----|
D|------------|------------|2-----------|0-----------|
A|3-----------|0-----------|------------|------------|
E|------------|------------|------------|------------|
              Look      at us       and try   to see  


[Solo] x3

 Guitar 1
e|7-------10--|8---7-------|----7-------|------------|
B|------------|--------8---|--------8---|7-----------|
G|------------|------------|9-----------|----9---7---|
D|------------|------------|------------|------------|
A|------------|------------|------------|------------|
E|------------|------------|------------|------------|

e|7-------10--|8---7-------|----7-------|------------|
B|------------|--------8---|--------8---|7---8---9---|
G|------------|------------|9-----------|------------|
D|------------|------------|------------|------------|
A|------------|------------|------------|------------|
E|------------|------------|------------|------------|

 Guitar 2
e|----0---0---|----2---2---|----0---0---|----2---2---|
B|----1---1---|----0---0---|----1---1---|----0---0---|
G|--0---0---0-|--0---0---0-|--0-------0-|--0---0-----|
D|------------|0-----------|------------|0-----------|
A|3-----------|------------|3-----3-----|------------|
E|------------|------------|------------|----------3-|

e|----0---0---|----2---2---|----0---0---|2---3---5---|
B|----1---1---|----0---0---|----1---1---|0---0---0---|I'm not quite sure
G|--0---0---0-|--0---0---0-|--0---0-----|------------|about this.I'ts 
D|------------|0-----------|----------0-|--0---0-----|so F**ing hard 
A|3-----------|------------|3-----3-----|------------|to make out the
E|------------|------------|------------|------------|background-guitar.
            
Submit corrections

↑ Back to top | Tablatures and chords for acoustic guitar and electric guitar, ukulele, drums are parodies/interpretations of the original songs. You may use it for private study, scholarship, research or language learning purposes only