Home » A » Ane Brun »

Ane Brun - Feeling Good Tabs

Artists:  A B C D E F G H I J K L M N O P Q R S T U V W X Y Z # 

Feeling Good Tabs

(ver. 1) Click to play this song!
Ane Brun
C#min     C#
e|-4---------4----------------|
B|-5---------4----------------|
G|-6---------5----------------|
D|-6---------6----------------|
A|-4---------6----------------|
E|-4---------4----------------|


[Intro and verse] 

  C#min     C#
e|---------------------------------------------------------------------------|
B|-----5p4------4------------------------------------------------------------|
G|-----6--6-----5------------------------------------------------------------|
D|---6-----------------------------------------------------------------------|
A|-4----------6--------------------------------------------------------------|
E|-----------4---------------------------------------------------------------|            
Submit corrections

↑ Back to top | Tablatures and chords for acoustic guitar and electric guitar, ukulele, drums are parodies/interpretations of the original songs. You may use it for private study, scholarship, research or language learning purposes only