Home » A » Ane Brun »

Ane Brun - Do You Remember Tabs

Artists:  A B C D E F G H I J K L M N O P Q R S T U V W X Y Z # 

Do You Remember Tabs

(ver. 1) Click to play this song!
Ane Brun
[Intro]

e|-----------------|-----------------|-----------------|-----------------|
B|-----------------|-----------------|-----------------|-----------------|
G|-----------------|-----------------|-----------------|-----------------|
D|-1-----1---------|-1-----1---------|-1-----1---------|-1-----1---------|
A|-----------------|-----------------|-----------------|-----------------|
E|-----------------|-----------------|-----------------|-----------------|


[Verse 1]

e|------------------|------------------|-----------------|------------------|
B|------------------|------------------|-----------------|------------------|
G|------------------|------------------|-----------------|------------------|
D|-1------1---------|-1------1---------|-1-----1---------|-1------1---------|
A|------------------|------------------|-----------------|------------------|
E|------------------|------------------|-----------------|------------------|
   Do you remember      that late mor  -   ning   when we    went back to bed?

e|-----------------|----------------------|-----------------|------------------|
B|-----------------|----------------------|-----------------|------------------|
G|-----------------|----------------------|-----------------|------------------|
D|-6-----6---------|-6------6-------------|-3-----3---------|-3------3---------|
A|-----------------|----------------------|-----------------|------------------|
E|-----------------|----------------------|-----------------|------------------|
              When  we   found our first po-sitions     and  ev-ery muscle re -

e|-----------------|-----------------|-----------------|-----------------|
B|-----------------|-----------------|-----------------|-----------------|
G|-----------------|-----------------|-----------------|-----------------|
D|-1-----1---------|-1-----1---------|-1-----1---------|-1-----1---------|
A|-----------------|-----------------|-----------------|-----------------|
E|-----------------|-----------------|-----------------|-----------------|
   sted?

e|------------------|------------------|-----------------|--------------------|
B|------------------|------------------|-----------------|--------------------|
G|------------------|------------------|-----------------|--------------------|
D|-1------1---------|-1------1---------|-1-----1---------|-1--------1---------|
A|------------------|------------------|-----------------|--------------------|
E|------------------|------------------|-----------------|--------------------|
   I do   remember      that I alrea-dy...               knew it was the last time

e|-----------------|------------------------|-----------------|---------------------|
B|-----------------|------------------------|-----------------|---------------------|
G|-----------------|------------------------|-----------------|---------------------|
D|-6-----6---------|-6--------6-------------|-3-----3---------|-3---------3---------|
A|-----------------|------------------------|-----------------|---------------------|
E|-----------------|------------------------|-----------------|---------------------|
               The  last time for first    po-sitions,     the  last time you'd be mine


[Interlude]

e|-----------------|-----------------|-----------------|-----------------|
B|-----------------|-----------------|-----------------|-----------------|
G|-----------------|-----------------|-----------------|-----------------|
D|-1-----1---------|-1-----1---------|-1-----1---------|-1-----1---------|
A|-----------------|-----------------|-----------------|-----------------|
E|-----------------|-----------------|-----------------|-----------------|
                                                           Oh-oh - oh-oh

e|-----------------|-----------------|-----------------|-----------------|
B|-----------------|-----------------|-----------------|-----------------|
G|-----------------|-----------------|-----------------|-----------------|
D|-3-----3---------|-6-----6---------|-8-----8---------|-9-----9---------|
A|-----------------|-----------------|-----------------|-----------------|
E|-----------------|-----------------|-----------------|-----------------|
   ooo - ooo   oh  - ooo - ooo   oh  - ooo - ooo   oh  - ooo

e|-----------------|-----------------|-----------------|-----------------|
B|-----------------|-----------------|-----------------|-----------------|
G|-----------------|-----------------|-----------------|-----------------|
D|-9-----9---------|-3-----3---------|-6-----6---------|-8-----8---------|
A|-----------------|-----------------|-----------------|-----------------|
E|-----------------|-----------------|-----------------|-----------------|
     Oh-oh - oh-oh   ooo - ooo   oh  - ooo - ooo   oh  - ooo - ooo   oh -

e|-----------------|-----------------|-----------------|-----------------|
B|-----------------|-----------------|-----------------|-----------------|
G|-----------------|-----------------|-----------------|-----------------|
D|-1-----1---------|-1-----1---------|-1-----1---------|-1-----1---------|
A|-----------------|-----------------|-----------------|-----------------|
E|-----------------|-----------------|-----------------|-----------------|
   ooo


[Verse 2]

e|------------------|-----------------|-----------------|------------------|
B|------------------|-----------------|-----------------|------------------|
G|------------------|-----------------|-----------------|------------------|
D|-1------1---------|-1-----1---------|-1-----1---------|-1------1---------|
A|------------------|-----------------|-----------------|------------------|
E|------------------|-----------------|-----------------|------------------|
   Do you remember      the scars I   showed you,    the stories I told you?

e|-----------------|----------------------|-----------------|-------------------|
B|-----------------|----------------------|-----------------|-------------------|
G|-----------------|----------------------|-----------------|-------------------|
D|-6-----6---------|-6------6-------------|-3-----3---------|-3-------3---------|
A|-----------------|----------------------|-----------------|-------------------|
E|-----------------|----------------------|-----------------|-------------------|
              How I  always said     'For - ever'   when you asked me to stay true?

e|-----------------|-----------------|-----------------|-----------------|
B|-----------------|-----------------|-----------------|-----------------|
G|-----------------|-----------------|-----------------|-----------------|
D|-1-----1---------|-1-----1---------|-1-----1---------|-1-----1---------|
A|-----------------|-----------------|-----------------|-----------------|
E|-----------------|-----------------|-----------------|-----------------|


e|------------------|------------------|-----------------|------------------|
B|------------------|------------------|-----------------|------------------|
G|------------------|------------------|-----------------|------------------|
D|-1------1---------|-1------1---------|-1-----1---------|-1------1---------|
A|------------------|------------------|-----------------|------------------|
E|------------------|------------------|-----------------|------------------|
   Do you remember       how we for - got   how to       smile at each other?

e|-----------------|----------------------|-----------------|---------------------|
B|-----------------|----------------------|-----------------|---------------------|
G|-----------------|----------------------|-----------------|---------------------|
D|-6-----6---------|-6------6-------------|-3-----3---------|-3---------3---------|
A|-----------------|----------------------|-----------------|---------------------|
E|-----------------|----------------------|-----------------|---------------------|
               To believe that the other             wants on-ly what's good for you?


[Outro]

e|-----------------|-----------------|-----------------|-----------------|
B|-----------------|-----------------|-----------------|-----------------|
G|-----------------|-----------------|-----------------|-----------------|
D|-1-----1---------|-1-----1---------|-1-----1---------|-1-----1---------|
A|-----------------|-----------------|-----------------|-----------------|
E|-----------------|-----------------|-----------------|-----------------|
                                                           Oh-oh - oh-oh

e|-----------------|-----------------|-----------------|-----------------|
B|-----------------|-----------------|-----------------|-----------------|
G|-----------------|-----------------|-----------------|-----------------|
D|-3-----3---------|-6-----6---------|-8-----8---------|-9-----9---------|
A|-----------------|-----------------|-----------------|-----------------|
E|-----------------|-----------------|-----------------|-----------------|
   ooo - ooo   oh  - ooo - ooo   oh  - ooo - ooo   oh  - ooo

e|-----------------|-----------------|-----------------|-----------------|
B|-----------------|-----------------|-----------------|-----------------|
G|-----------------|-----------------|-----------------|-----------------|
D|-9-----9---------|-3-----3---------|-6-----6---------|-8-----8---------|
A|-----------------|-----------------|-----------------|-----------------|
E|-----------------|-----------------|-----------------|-----------------|
     Oh-oh - oh-oh   ooo - ooo   oh  - ooo - ooo   oh  - ooo - ooo   oh -

e|-----------------|-----------------|-----------------|-----------------|
B|-----------------|-----------------|-----------------|-----------------|
G|-----------------|-----------------|-----------------|-----------------|
D|-1-----1---------|-1-----1---------|-1-----1---------|-1-----1---------|
A|-----------------|-----------------|-----------------|-----------------|
E|-----------------|-----------------|-----------------|-----------------|
   ooo                                                     Oh-oh - oh-oh

e|-----------------|-----------------|-----------------|-----------------|
B|-----------------|-----------------|-----------------|-----------------|
G|-----------------|-----------------|-----------------|-----------------|
D|-3-----3---------|-6-----6---------|-8-----8---------|-9-----9---------|
A|-----------------|-----------------|-----------------|-----------------|
E|-----------------|-----------------|-----------------|-----------------|
   ooo - ooo   oh  - ooo - ooo   oh  - ooo - ooo   oh  - ooo

e|-----------------|-----------------|-----------------|-----------------|
B|-----------------|-----------------|-----------------|-----------------|
G|-----------------|-----------------|-----------------|-----------------|
D|-9-----9---------|-3-----3---------|-6-----6---------|-8-----8---------|
A|-----------------|-----------------|-----------------|-----------------|
E|-----------------|-----------------|-----------------|-----------------|
     Oh-oh - oh-oh   ooo - ooo   oh  - ooo - ooo   oh  - ooo - ooo   oh -

e|-----------------|-----------------|-----------------|
B|-----------------|-----------------|-----------------|
G|-----------------|-----------------|-----------------|
D|-1-----1---------|-1-----1---------|-1-----1---------|
A|-----------------|-----------------|-----------------|
E|-----------------|-----------------|-----------------|
   ooo             
Submit corrections

↑ Back to top | Tablatures and chords for acoustic guitar and electric guitar, ukulele, drums are parodies/interpretations of the original songs. You may use it for private study, scholarship, research or language learning purposes only