» » »

Ane Brun - Big In Japan Tabs

Artists:  A B C D E F G H I J K L M N O P Q R S T U V W X Y Z # 

Big In Japan Tabs

(ver. 1) Click to play this song!
Ane Brun
 Rating:
4.3/5 (13 votes)

 Big In Japan lessons Tabs too difficult? Try these video lessons and learn fast
 
                [Intro]

d |----------------------------------------------------------------|
Bb|--------0---0-----------0---0--------0---0--------0---0---------|
G |------0---0---0-------0---0---0----0---0---0----0---0---0-------|
D |------------0---------------0------------0------------0---------|
G |---0--------------0---------------------------------------------|
D |---------------------------------1------------1-----------------|

d |-------------------------------------------------------------------|
Bb|--------0---0----------0---0-----------2---2----------2---2--------|
G |------0---0---0------0---0---0-------0---0---0------0---0---0------|
D |------------0--------------0---------------0--------------0--------|
G |-------------------------------------------------2-----------------|
D |---3--------------3---------------0--------------------------------|


[Verse] (x2)

   (winter cityside...)
   (I had no illusion...)
d |----------------------------------------------------------------|
Bb|--------0---0-----------0---0--------0---0--------0---0---------|
G |------0---0---0-------0---0---0----0---0---0----0---0---0-------|
D |------------0---------------0------------0------------0---------|
G |---0--------------0---------------------------------------------|
D |---------------------------------1------------1-----------------|

d |-------------------------------------------------------------------|
Bb|--------0---0----------0---0-----------2---2----------2---2--------|
G |------0---0---0------0---0---0-------0---0---0------0---0---0------|
D |------------0--------------0---------------0--------------0--------|
G |-------------------------------------------------2-----------------|
D |---3--------------3---------------0--------------------------------|

[Verse] (x2)

   (you did what you did to me....)
   (things will happen...)
d |----------------------------------------------------------------|
Bb|--------0---0-----------0---0--------0---0--------0---0---------|
G |------0---0---0-------0---0---0----0---0---0----0---0---0-------|
D |------------0---------------0------------0------------0---------|
G |---0------------------------------------------------------------|
D |--------------------1------------3------------0-----------------|

d |-------------------------------------------------------------------|
Bb|--------0---0----------0---0-----------2---2----------2---2--------|
G |------0---0---0------0---0---0-------0---0---0------0---0---0------|
D |------------0--------------0---------------0--------------0--------|
G |-------------------------------------------------2-----------------|
D |---1--------------1---------------0--------------------------------|

[Between verse and chorus]

d |------------------------------------|
Bb|--------2---2----------2---2--------|
G |------0---0---0------0---0---0------|
D |------------0--------------0--------|
G |------------------2-----------------|
D |---0--------------------------------|


[Chorus] (x2)

   (when you're big in Japan...)
   (big in Japan...)
d |----------------------------------------------------------------|
Bb|--------0---0-----------0---0--------0---0--------0---0---------|
G |------0---0---0-------0---0---0----0---0---0----0---0---0-------|
D |------------0---------------0------------0------------0---------|
G |---0--------------0---------------------------------------------|
D |---------------------------------1------------1-----------------|

d |-------------------------------------------------------------------|
Bb|--------0---0----------0---0-----------2---2----------2---2--------|
G |------0---0---0------0---0---0-------0---0---0------0---0---0------|
D |------------0--------------0---------------0--------------0--------|
G |-------------------------------------------------2-----------------|
D |---3--------------3---------------0--------------------------------|

   (big in Japan, where the eastern sea...)
   (things are easy...)
d |-------------------------------------------------------------------|
Bb|--------0---0----------0---0-----------0---0----------0---0--------|
G |------0---0---0------0---0---0-------0---0---0------0---0---0------|
D |------------0--------------0---------------0--------------0--------|
G |-------------------------------------------------------------------|
D |---1--------------1---------------1---------------1----------------|

d |-------------------------------------------------------------------|
Bb|--------2---2----------2---2-----------2---2----------2---2--------|
G |------0---0---0------0---0---0-------0---0---0------0---0---0------|
D |------------0--------------0---------------0--------------0--------|
G |-------------------2------------------------------2----------------|
D |---0------------------------------0--------------------------------|

            
Submit corrections


        Big In Japan lessons Hard to play? Try these video lessons and learn fast Big In Japan lessons
        
↑ Back to top | Tablatures and chords for acoustic guitar and electric guitar, ukulele, drums are parodies/interpretations of the original songs. You may use it for private study, scholarship, research or language learning purposes only