Home » A » Ane Brun »

Ane Brun - A Temporary Dive Tabs

Artists:  A B C D E F G H I J K L M N O P Q R S T U V W X Y Z # 

A Temporary Dive Tabs

(ver. 1) Click to play this song!
Ane Brun
En liten bit av A Temporary Dive

e|----------------------1--|------------------------|------------------------|
B|-------------------------|------------------------|----------------3----0--|
G|--------0--3----2--------|----2-----3----2-----3--|----------0--4----------|
D|-----0-------------0-----|-------0----------0-----|-------2----------------|
A|-------------------------|------------------------|------------------------|
E|--3----------------------|------------------------|--0---------------------|
                                                                          
e|-----------------------|-------------------------|-----------------------|
B|-----------------------|-----------1----0-----3--|----0-----1----0-------|
G|----0---------0-----0--|--------2----------------|-----------------------|
D|---------2-------------|-----2-------------2-----|-------2---------------|
A|-----------------------|--0----------------------|------------------0/---|
E|-----------------3-----|-------------------------|-----------------------|
                                                   
e|----------------------|-----------------------|
B|---------4----4----4--|----4------------------|
G|---------0----0----0--|----0---------0-----0--|
D|----------------------|-------0---------0-----|
A|--3------3----3----3--|----3------------------|
E|----------------------|-----------------------|

Noe vrien a spille i std. tuning, men inntil jeg finner ut hvilken tuning den skal spilles i, sa far det duge.


************************************

| /  Slide up

************************************

[Lyrics]

[Verse]

I fell down in that hole again
I am a lump of jelly
I am a dead fish

I look up at the blue sky
Aand I know that it's just
A temporary dive


[Chorus]

Sometimes we tip toe
Sometimes we run
Sometimes we wander while
Looking at the sun
Sometimes we tip toe
Sometimes we run
Sometimes we wander while
Looking at the sun


[Verse]

Sitting on the cold dirt floor
I want to finish the counting of days on the walls
I build a ladder from broken wish bones
And square-shaped stones
That my friends threw down in the hole


[Chorus]

Sometimes we tip toe
Sometimes we run
Sometimes we wander while
Looking at the sun
Sometimes we tip toe
Sometimes we run
Sometimes we wander while
Looking at the sun


[Verse]

And even though I read maps to avoid them
They change location every day
And somehow all of my traces they vanish
But shall one stay put
Shall one lay low
Shall one not go
Just to avoid this hole


[Chorus]

Sometimes we tip toe
Sometimes we run
Sometimes we wander while
Looking at the sun
Sometimes we tip toe
Sometimes we run
Sometimes we wander while
Looking at the sun            
Submit corrections

↑ Back to top | Tablatures and chords for acoustic guitar and electric guitar, ukulele, drums are parodies/interpretations of the original songs. You may use it for private study, scholarship, research or language learning purposes only