» » »

And You Will Know Us By The Trail Of Dead - Mach Schau Tabs

Artists:  A B C D E F G H I J K L M N O P Q R S T U V W X Y Z # 

Mach Schau Tabs

(ver. 1) Click to play this song!
And You Will Know Us By The Trail Of Dead
 Rating:
4/5 (4 votes)

 Mach Schau lessons Tabs too difficult? Try these video lessons and learn fast
 
                I thought it was about time someone tabs the songs off of this badass CD. If you think this is all wrong or you want to compliment

^   Pulloff



--------------------------------7--7--7--7--5--7^5--0-------------------------------------------------------------------------    REPEAT   4x
---5--7--5--7--5--0--3----------------------------------------------------------------------------------------------------------------  




---------------------------7^5--7^5--7^5--7^5--7--9--7--5-------------------     
--4-6-4-6-8-6-4---------------------------------------------------------------------


Part where they repeat the words "Mach Schau". Strum this over and over again

----------------
------------------
--------------------
------------------
----7-7-7-7-------
----7-7-7-7--------
            
Submit corrections


        Mach Schau lessons Hard to play? Try these video lessons and learn fast Mach Schau lessons
        
↑ Back to top | Tablatures and chords for acoustic guitar and electric guitar, ukulele, drums are parodies/interpretations of the original songs. You may use it for private study, scholarship, research or language learning purposes only